Song name
# A B C D E F G H I J K L M N O P Q R S T U V W X Y Z

The Mars Volta - The Whip Hand tab

The Whip Hand - The Mars Volta

Tabbed by: Mr Output     
Email: bitzandpixels@gmail.com

Tuning: Standard

Intro
e|---------------------------------------------------------------|
B|---------------------------------------------------------------|
G|---------------------------------------------------------------|
D|---------------------------------------------------------------|X2 Add the 9(C#) after 
A|---------------------------------------------------------------|the second time 
E|--7--7--7--b7--b7(8)--1--0--5--5--5--b5--b5(6)--10--8---(9)----|

Verse
e|-----------------2--------------------5------------------------|
B|-----------------3--------------------5------------------------|
G|-----------------4--------------------5------------------------|
D|-----------------4--------------------7------------------------|X4
A|--2--------------2--------------------7------------------------|
E|-----2--2--2--2--------7--5--5--5--5--5------------------------|

Bridge
e|---------------------------------------------------------------|
B|---------------------------------------------------------------|
G|--------------12----------------------11-----------------------|
D|----9---------------------7------------------------------------|X2
A|---------------------------------------------------------------|
E|---------------------------------------------------------------|

Chorus
e|----------------------------------------------------------|
B|----------------------------------------------------------|
G|----------------------------------------------------------|
D|----------------------------------------------------------|x4
A|---7--7--7/3--3--7--8--6---3/7--7--7--3--3--6-----6-----3/|
E|-----------------------------------------------8-----8----|

Verse
e|---------------------------------------------------------------|
B|---------------------------------------------------------------|
G|---------------------------------------------------------------|
D|---------------------------------------------------------------|X1 (If you have a 
A|--2------------------------------------------------------------|reverse-reverb pedal, 
E|-----2--2--2--2--------7--5--5--5--5--5------------------------|hit it now)

Verse
e|-----------------2--------------------5------------------------|
B|-----------------3--------------------5------------------------|
G|-----------------4--------------------5------------------------|
D|-----------------4--------------------7------------------------|X4 (Chords are not 
A|--2--------------2--------------------7------------------------|      reversed)
E|-----2--2--2--2--------7--5--5--5--5--5------------------------|

Bridge
e|---------------------------------------------------------------|
B|---------------------------------------------------------------|
G|--------------12----------------------11-----------------------|
D|----9---------------------7------------------------------------|X2
A|---------------------------------------------------------------|
E|---------------------------------------------------------------|

Chorus
e|----------------------------------------------------------|
B|----------------------------------------------------------|
G|----------------------------------------------------------|
D|----------------------------------------------------------|x4
A|---7--7--7/3--3--7--8--6---3/7--7--7--3--3--6-----6-----3/|
E|-----------------------------------------------8-----8----|

Landmine Bridge

Chorus
e|----------------------------------------------------------|
B|----------------------------------------------------------|
G|----------------------------------------------------------|
D|----------------------------------------------------------|x4
A|---7--7--7/3--3--7--8--6---3/7--7--7--3--3--6-----6-----3/|
E|-----------------------------------------------8-----8----|



| /  slide up
| \  slide down
| h  hammer-on
| p  pull-off
| b  bend 
| ~  vibrato
| +  harmonic
| x  Mute note
Tap to rate this tab
# A B C D E F G H I J K L M N O P Q R S T U V W X Y Z