The Martin Harley Band - Money Dont Matter tab

e|---10--9--7------7---------------------------------------------|
B|-7---7--7---7h10---7p5---5--------5h7-5h7-5h7------------------| 
G|-----------------------7---4/7-4----------------9p7---9-7------| 
D|----------------------------------------------------7-----9-7--| 
A|---------------------------------------------------------------| 
E|---------------------------------------------------------------| 

e|-----------------------------------------x---------------------| 
B|----------------------------5h6p5-5h6p5--x---------------------|
G|-/7--/9-9/10\9--8/9-8/9--7---------------x-7p6-----------------|
D|-----------------------------------------x---------------------| 
A|---------------------------------------------------------------| 
E|---------------------------------------------------------------| 
Tap to rate this tab
 
# A B C D E F G H I J K L M N O P Q R S T U V W X Y Z