Song name
# A B C D E F G H I J K L M N O P Q R S T U V W X Y Z

The Martin Harley Band - Steady Rollin tab

-------------------------------------------------------------------------------
			     Steady Rollin' - The Martin Harley Band
-------------------------------------------------------------------------------
Tabbed by: S.R.Gill
Email: s.r.gill@hotmail.com

Tuning: DADGAD (Capo Fret 2)

Intro:

D|--0h2h4---0---0-------------------0h2h4--0-------------2-0h2p0-------------|
A|--------4--4/5----5-----7--9-----------4----4/5--5--0---------2------------|
G|-----------0------0-----0--0----------------0----0--0----------------------|
D|---------------------------------------------------------------------------|
A|-----------4/5----0h4h5-7--9----------------4/5--4--2----------------------|
D|--0------4------------------------0-----4----------------------------------|

D|--0h2h4---0---0-------------------0h2h4--0-------------2-0h2p0-------------|
A|--------4--4/5----5-----7--9-----------4----4/5--5--0---------2------------|
G|-----------0------0-----0--0----------------0----0--0----------------------|
D|---------------------------------------------------------------------------|
A|-----------4/5----0h4h5-7--9----------------4/5--4--2----------------------|
D|--0------4------------------------0-----4----------------------------------|

D|--0---0--0------------------------|
A|---0---0--0-----------------------|
G|----0---0--0----------------------|
D|----------------------------------|
A|-----2----------------------------|
D|----------------------------------|




Verse:

            put your life into the car

D|--0h2h4---0---0-----0------------------------------------------------------|
A|--------4--4/5----0--------------------------------------------------------|
G|-----------0---------------------------------------------------------------|
D|---------------------------------------------------------------------------|
A|-----------4/5----2--------------------------------------------------------|
D|--0------4-----------------------------------------------------------------|

            wanna find where the good things are

D|--0h2h4---0---0-----0------------------------------------------------------|
A|--------4--4/5----0--------------------------------------------------------|
G|-----------0---------------------------------------------------------------|
D|---------------------------------------------------------------------------|
A|-----------4/5----2--------------------------------------------------------|
D|--0------4-----------------------------------------------------------------|

            wanna see what we can see

D|--0h2h4---0---0-----0------------------------------------------------------|
A|--------4--4/5----0--------------------------------------------------------|
G|-----------0---------------------------------------------------------------|
D|---------------------------------------------------------------------------|
A|-----------4/5----2--------------------------------------------------------|
D|--0------4-----------------------------------------------------------------|


            oh yeah   yeah

D|--0h2h4---0---0-----0------------------------------------------------------|
A|--------4--4/5----0--------------------------------------------------------|
G|-----------0---------------------------------------------------------------|
D|---------------------------------------------------------------------------|
A|-----------4/5----2--------------------------------------------------------|
D|--0------4-----------------------------------------------------------------|

                don't know where to begin                      'cos this life

D|--0h2h4---0---0-----0------------------------------------------------------|
A|--------4--4/5----0--------------------------------------------------------|
G|-----------0---------------------------------------------------------------|
D|---------------------------------------------------------------------------|
A|-----------4/5----2--------------------------------------------------------|
D|--0------4-----------------------------------------------------------------|

                such a special thing                      i wanna lose myself

D|--0h2h4---0---0-----0------------------------------------------------------|
A|--------4--4/5----0--------------------------------------------------------|
G|-----------0---------------------------------------------------------------|
D|---------------------------------------------------------------------------|
A|-----------4/5----2--------------------------------------------------------|
D|--0------4-----------------------------------------------------------------|

                but not my mind, not my mind

D|--0h2h4---0---0-----0-------------0h2h4--0---------------------------------|
A|--------4--4/5----0--------------------4----4/5--5--0----------------------|
G|-----------0--------------------------------0----0--0----------------------|
D|---------------------------------------------------------------------------|
A|-----------4/5----2-------------------------4/5--4--2----------------------|
D|--0------4------------------------0-----4----------------------------------|

Chorus:

               steady rollin' now                     got the wheels spinning

D|--0-------------------------------0----------------------------------------|
A|--0-------------------------------0----------------------------------------|
G|--0-------------------------------0----------------------------------------|
D|--2-------------------------------5----------------------------------------|
A|--2-------------------------------5----------------------------------------|
D|--2-------------------------------5----------------------------------------|

    round                get in the car                    put my foot to the

D|--0-------------------------------0----------------------------------------|
A|--0-------------------------------0----------------------------------------|
G|--7-------------------------------0----------------------------------------|
D|--7-------------------------------7----------------------------------------|
A|--5-------------------------------7----------------------------------------|
D|--x-------------------------------7----------------------------------------|

    ground           steady rollin' now             i got the wheels spinning 

D|--0-------------------------------0----------------------------------------|
A|--0-------------------------------0----------------------------------------|
G|--0-------------------------------0----------------------------------------|
D|--2-------------------------------5----------------------------------------|
A|--2-------------------------------5----------------------------------------|
D|--2-------------------------------5----------------------------------------|

    round                get in the car put your foot down 

D|--0-------------------------------0----------------------------------------|
A|--0-------------------------------0----------------------------------------|
G|--7-------------------------------0----------------------------------------|
D|--7-------------------------------7----------------------------------------|
A|--5-------------------------------7----------------------------------------|
D|--x-------------------------------7----------------------------------------|

    yeah put your foot down    come on put your foot to the ground

D|--0-------------------------------0----------------------------------------|
A|--0-------------------------------0----------------------------------------|
G|--0-------------------------------0----------------------------------------|
D|--7-------------------------------7----------------------------------------|
A|--7-------------------------------7----------------------------------------|
D|--7-------------------------------7----------------------------------------|


Back to intro

Verse 2 (as verse 1)

Chorus:

               steady rollin' now                     got the wheels spinning

D|--0-------------------------------0----------------------------------------|
A|--0-------------------------------0----------------------------------------|
G|--0-------------------------------0----------------------------------------|
D|--2-------------------------------5----------------------------------------|
A|--2-------------------------------5----------------------------------------|
D|--2-------------------------------5----------------------------------------|

    round                get in the car                    put my foot to the

D|--0-------------------------------0----------------------------------------|
A|--0-------------------------------0----------------------------------------|
G|--7-------------------------------0----------------------------------------|
D|--7-------------------------------7----------------------------------------|
A|--5-------------------------------7----------------------------------------|
D|--x-------------------------------7----------------------------------------|

    ground           steady rollin' now             i got the wheels spinning 

D|--0-------------------------------0----------------------------------------|
A|--0-------------------------------0----------------------------------------|
G|--0-------------------------------0----------------------------------------|
D|--2-------------------------------5----------------------------------------|
A|--2-------------------------------5----------------------------------------|
D|--2-------------------------------5----------------------------------------|

    round                get in the car put your foot down 

D|--0-------------------------------0----------------------------------------|
A|--0-------------------------------0----------------------------------------|
G|--7-------------------------------0----------------------------------------|
D|--7-------------------------------7----------------------------------------|
A|--5-------------------------------7----------------------------------------|
D|--x-------------------------------7----------------------------------------|

    yeah put your foot down

D|--0-------------------------------0----------------------------------------|
A|--0-------------------------------0----------------------------------------|
G|--0-------------------------------0----------------------------------------|
D|--7-------------------------------7----------------------------------------|
A|--7-------------------------------7----------------------------------------|
D|--7-------------------------------7----------------------------------------|

    art                  of getting lost                              is not a

D|--0-------------------------------0----------------------------------------|
A|--0-------------------------------0----------------------------------------|
G|--0-------------------------------0----------------------------------------|
D|--2-------------------------------5----------------------------------------|
A|--2-------------------------------5----------------------------------------|
D|--2-------------------------------5----------------------------------------|

    temporary                       thing                                 it's

D|--0-------------------------------0----------------------------------------|
A|--0-------------------------------0----------------------------------------|
G|--7-------------------------------0----------------------------------------|
D|--7-------------------------------7----------------------------------------|
A|--5-------------------------------7----------------------------------------|
D|--x-------------------------------7----------------------------------------|

   just you have to get back to the start                                 and

D|--0-------------------------------0----------------------------------------|
A|--0-------------------------------0----------------------------------------|
G|--0-------------------------------0----------------------------------------|
D|--2-------------------------------5----------------------------------------|
A|--2-------------------------------5----------------------------------------|
D|--2-------------------------------5----------------------------------------|

    Know                where to begin

D|--0-------------------------------0----------------------------------------|
A|--0-------------------------------0----------------------------------------|
G|--7-------------------------------0----------------------------------------|
D|--7-------------------------------7----------------------------------------| x2
A|--5-------------------------------7----------------------------------------|
D|--x-------------------------------7----------------------------------------|
Tap to rate this tab
 
# A B C D E F G H I J K L M N O P Q R S T U V W X Y Z