Song name
# A B C D E F G H I J K L M N O P Q R S T U V W X Y Z

The Martin Harley Band - Money Dont Matter tab

-----------------------------------------------------------------------------
                             Money Don't Matter - Martin Harley
                                    www.martinharley.com
-----------------------------------------------------------------------------
Tabbed by: Johnny
Email: johnnysweetmeat@gmail.com

Tuning: Standard Tuning

Main Verse section.

There are many variations used throughout the song, all are built around this  basic
pattern. The chords are picked not strummed, with the thumb catching the Low E and A
strings and the 1st, 2nd and 3rd fingers plucking the D,G and B strings. Also, it's 
important to be percussive, so kind of slap (^) the strings when you return your hand to 
them so
they make a kind of 'thwack'. Just listen to the song...

e|------------------------------------------------------------------------------|
B|-3-^----3h5-^--65-^---6/5p3p2----^-5-5-^-----2-^--2-2-------------------------|
G|-2-^----2---^--2--^---2------4---^-4-4-^-----3-^--3-3-------------------------|
D|-4-^----4---^--4--^---4----------^-2---^-----2-^--2---------------------------|
A|-2-^--2-----^--2--^---2----------^-----^-------^------------------------------|
E|-------------------------------3-^-3---^-0h2---^--2---------------------------|

e|---------------------------------------------------2---------------------------|
B|-3-^----3h5-^--65-^---6/5p3p2----^-5-5-^---------2-----------------------------|
G|-2-^----2---^--2--^---2------4---^-4-4-^-------3-------------------------------|
D|-4-^----4---^--4--^---4----------^-2---^-----2---------------------------------|
A|-2-^--2-----^--2--^---2----------^-----^---------------------------------------|
E|-------------------------------3-^-3---^-0h2-----------------------------------|

Chorus:
          (strum)                               (strum)
e|-----7--7-7-7-7-----------------------7-7---7-7-7-7-7----------------------|
B|-----7--7-7-7-7-----------------------7-7---7-7-7-7-7----------------------|
G|-----7--7-7-7-7----(repeat, then)-----7-7---7-7-7-7-7------(repeat)--------|
D|--------x-x-x-x-------------------------------6-6-6-6----------------------|
A|--------6-6-6-6---------------------7----0h7-------------------------------|
E|---7----7-7-7-7------------------------------------------------------------|

************************************

| /   slide up
| \   slide down
| h   hammer-on
| p   pull-off
| ~   vibrato
| +   harmonic
| x   Mute note
| b   Bend
| pb  Pre-bend
| br  Bend release
| pbr Pre-bend release
| brb Bend release bend
| ^   String slap
************************************
Tap to rate this tab
# A B C D E F G H I J K L M N O P Q R S T U V W X Y Z