Song name
# A B C D E F G H I J K L M N O P Q R S T U V W X Y Z

The Martin Harley Band - Winter Coat tab

Winter Coat by Martin Harley Band

http://youtu.be/npXUVG3trVM

zaxsk8@gmail.com

Standard tuning capo on 2nd      h = hammer on
                                 p = pull off
                                 / = slide up

The song has a jaunty bounce and there are occasional flourishes throughout the verse and
chords to add flavour but this is the backbone of the song and is I think mostly 
accurate for
the video linked above.  I have placed the chords above the lyrics in an attempt to show
where to play the chord in relation to the words.

Intro:

       Am                          Am
e|-----------------------------------------------------------|
B|------1---------------------------1------------------------|
G|------2---------------------------2------------------------|
D|------2--------0-2p0--------------2----/9-7-5-4------------|
A|----0-----0h2h3-------3p2p0-----0--------------------------|
E|-----------------------------------------------------------|

        Am
e|------------------------------------------------------|
B|-------1----------------------------------------------|
G|-------2----------------------------------------------|
D|-------2--------0-2p0------------/9-7-5-4-0-----------|
A|-----0----0h2h3---------3p2p0----------------3-2-0----|
E|------------------------------------------------------|

Verse 1:

Am             G
   Take me out

 D
Tonight

Am
   I wanna  go

G                   D
  Where I can feel alive


Chorus:

F                 C
My old winter coat


G                                   Am
  Is big enough for you and me both

**After the Am do this before the next F**

e|----------------|
B|----------------|
G|----------------|
D|-----9-7-5-4----|
A|----------------|
E|----------------|



F
 To keep off the rain

C
 As we make our way

G
 Through the north lanes

Am

e|----------------|
B|----------------|
G|----------------|
D|-----9-7-5-4----|
A|----------------|
E|----------------|


F   G   Am


Verse 2:

Am              G
   Take me down

D
Tonight

Am                               G
  I wanna throw stones in the ocean

                  D
I wanna chase the tide



Chorus:

F                 C
My old winter coat


G                                   Am
  Is big enough for you and me both

After the Am do this before the next F

e|----------------|
B|----------------|
G|----------------|
D|-----9-7-5-4----|
A|----------------|
E|----------------|



F
 To keep off the rain

C
 As we make our way

G
 Through the north lanes

Am

e|----------------|
B|----------------|
G|----------------|
D|-----9-7-5-4----|
A|----------------|
E|----------------|


F   G   Am


Bridge:

G                      F
  For one sweet moment


G
  I feel like a picture in a frame


G               F
  Everything is black and white


   C                               Am
But the cards just fall where they lay


Chorus x2 (play palm muted with the little lick once at the end, then normally):


F                 C
My old winter coat


G                                   Am
  Is big enough for you and me both

F
 To keep off the rain

C
 As we make our way

G
 Through the north lanes

Am
e|----------------|
B|----------------|
G|----------------|
D|-----9-7-5-4----|
A|----------------|
E|----------------|



F                 C
My old winter coat


G                                   Am
  Is big enough for you and me both

After the Am do this before the next F

e|----------------|
B|----------------|
G|----------------|
D|-----9-7-5-4----|
A|----------------|
E|----------------|



F
 To keep off the rain

C
 As we make our way

G
 Through the north lanes

Am



The ending on the video is more posh than I can play, I usually opt for a version of the 
intro to finish.

:)

Have fun

This tab is entirely my own work.
Tap to rate this tab
 
# A B C D E F G H I J K L M N O P Q R S T U V W X Y Z