Song name
# A B C D E F G H I J K L M N O P Q R S T U V W X Y Z

The Mascara Story - Episode tab

TABBED BY: Boigoth = a_fools_funeral@mindless.com

ok heres how i recon it goes!! Its 100% accurate to me


|---------------------------------------------------------------|
|---------------------------------------------------------------|
|-8--99999-9-9--99999--------------6-6--------------------------|
|-6--66666-6-6--66666--6-6---7-7---6-6---4-4------777777777777--|
|-7--77777-7-7--77777--6-6---7-7---4-4---4-4---6--777777777777--|
|-0--00000-0-0--00000--4-4-0-5-5-0-----0-2-2-2/4--555555555555--|

|------------------------|
|------------------------|
|------------6-----------|
|-6-7-777777-6-6-7-4--2--|
|-6-7-777777-4-6-7-4--2--|
|-4-5-555555---4-5-2--0--|
Tap to rate this tab
# A B C D E F G H I J K L M N O P Q R S T U V W X Y Z