Song name
# A B C D E F G H I J K L M N O P Q R S T U V W X Y Z

The Max Weinberg 7 - Late Night With Conan Obrien Theme tab

Conan O'Brien Theme Song - The Max Weinberg 7
Late Night with Conan O'Brien
Music by John Lurie

Transcribed by Keith Fleetwood
http://profile.ultimate-guitar.com/kfleetwood
http://www.myspace.com/kfleetwood
http://www.youtube.com/kfleetwood


BASS INTRO

G|------------------------------------|------4----------------------------||
D|.--------------3---5-------3--------|--5-------3---------------3-------.||
A|.------2---5-----------5-------5----|--------------5-------5-------5---.||
E|---3--------------------------------|------------------3----------------||
     1 . + . 2 . + . 3 . + . 4 . + .     1 . + . 2 . + . 3 . + . 4 . + .

                                            [4 times]
                                        (band enters after 2x)


GUITAR

E||----------13------13----------13--|--13------13----------13--13--13--||
B||----------12------12----------12--|--12------12----------12--12--12--||
G||----------------------------------|----------------------------------||
D||--R-----------r-------R-----------|------r-------R-------------------||
A||----------------------------------|----------------------------------||
E||----------------------------------|----------------------------------||
     1 . + . 2 . + . 3 . + . 4 . + .    1 . + . 2 . + . 3 . + . 4 . + .




E||-----------------------------------|-----------------------------------|
B||--12------10-----------------------|--8-------6------------------------|
G||--12------10-----------------------|--9-------7------------------------|
D||-----------------------------------|--9-------7------------------------|
A||-----------------------------------|-----------------------------------|
E||-----------------------------------|-----------------------------------|
     1 . + . 2 . + . 3 . + . 4 . + .     1 . + . 2 . + . 3 . + . 4 . + .




Gtr
E|-----------------------------------|----------------------------------||
B|--5-------3------------------------|------------------------------3-/-||
G|--5-------4------------------------|----------------------------------||
D|-----------------------------------|----------------------------------||
A|-----------------------------------|----------------------------------||
E|-----------------------------------|----------------------------------||
 |  1 . + . 2 . + . 3 . + . 4 . + .     1 . + . 2 . + . 3 . + . 4 . + . ||
 |                                                                      ||
G|-----------------------------------|------4---------------------------||
D|--------------3---5-------3--------|--5-------3---------------3---3---||
A|------2---5-----------5-------5----|--------------5-------5-----------||
E|--3--------------------------------|------------------3---------------||
Bass




E||------3---4-5---------3---6-5-4-0==|========--------------------------|
B||-/6-----------3-/-6----------------|----------9-------9-----9-----3-/-|
G||-----------------------------------|----------9-------9-----9---------|
D||-----------------------------------|----------9-------9-----9---------|
A||-----------------------------------|----------------------------------|
E||-----------------------------------|----------------------------------|
 ||  1 . + . 2 . + . 3 . + . 4 . + .     1 . + . 2 . + . 3 . + . 4 . + . |
 ||                                                                      |
G||------3---4-5---------3---6-5-4-0==|=============================-----|
D||--6-----------3---6----------------|------------------------------3---|
A||-----------------------------------|----------------------------------|
E||-----------------------------------|----------------------------------|




E|------3---4-5---------3---6-5-4-2==|========--------------------------||
B|-/6-----------3-/-6----------------|----------9-------9-----9---------||
G|-----------------------------------|----------9-------9-----9---------||
D|-----------------------------------|----------9-------9-----9---------||
A|-----------------------------------|----------------------------------||
E|-----------------------------------|----------------------------------||
 |  1 . + . 2 . + . 3 . + . 4 . + .     1 . + . 2 . + . 3 . + . 4 . + . ||
 |                                                                      ||
G|------3---4-5---------3---6-5-4-2==|=============================-----||
D|--6-----------3---6----------------|------------------------------3---||
A|-----------------------------------|----------------------------------||
E|-----------------------------------|----------------------------------||




E||-----------------------------------|-----------------------------------|
B||--18--------18--------------16-----|------16------------------3-/-6----|
G||--------18--------18---------------|--16--------16---------------------|
D||-----------------------------------|-----------------------------------|
A||-----------------------------------|-----------------------------------|
E||-----------------------------------|-----------------------------------|
 ||  1 . + . 2 . + . 3 . + . 4 . + .     1 . + . 2 . + . 3 . + . 4 . + .  |
 ||                                                                       |
G||--23--------23--------------21-----|------21---------------------------|
D||--------23--------23---------------|--21--------21------------3---6----|
A||-----------------------------------|-----------------------------------|
E||-----------------------------------|-----------------------------------|




E|--3---4-5---------3---6-5-4-0======|==================================-||
B|------4-5-3---6--------------------|-----------------------------------||
G|-----------------------------------|-----------------------------------||
D|-----------------------------------|-----------------------------------||
A|-----------------------------------|-----------------------------------||
E|-----------------------------------|-----------------------------------||
 |  1 . + . 2 . + . 3 . + . 4 . + .     1 . + . 2 . + . 3 . + . 4 . + .  ||
 |                                                                       ||
G|--3---4-5---------3---6-5-4-0======|==================================-||
D|----------3---6--------------------|-----------------------------------||
A|-----------------------------------|-----------------------------------||
E|-----------------------------------|-----------------------------------||




E||-----------------------------------|-----------------------------------|
B||--12------10-----------------------|--8-------6------------------------|
G||--12------10-----------------------|--9-------7------------------------|
D||--12------10-----------------------|--9-------7------------------------|
A||-----------------------------------|-----------------------------------|
E||-----------------------------------|-----------------------------------|
 ||  1 . + . 2 . + . 3 . + . 4 . + .     1 . + . 2 . + . 3 . + . 4 . + .  |
 ||                                                                       |
G||-----------------------------------|-----------------------------------|
D||--12------10-----------------------|--9-------7------------------------|
A||-----------------------------------|-----------------------------------|
E||-----------------------------------|-----------------------------------|




                                        [---slide up---------------------]
E|-----------------------------------|--5/-------------------------------|
B|--5-------3------------------------|--5/-------------------------------|
G|--5-------4------------------------|--5/-------------------------------|
D|--5-------5------------------------|-----------------------------------|
A|----------5------------------------|-----------------------------------|
E|-----------------------------------|-----------------------------------|
 |  1 . + . 2 . + . 3 . + . 4 . + .     1 . + . 2 . + . 3 . + . 4 . + .  |
 |                                                                       |
G|-----------------------------------|-----------------------------------|
D|--2--------------------------------|--5--------------------------------|
A|----------5------------------------|-----------------------------------|
E|-----------------------------------|-----------------------------------|




    [big boffo ending----------------------------------------------------]
E|--12-------------------------------|-----------------------------------|
B|--10-------------------------------|-----------------------------------|
G|--10-------------------------------|-----------------------------------|
D|--9--------------------------------|-----------------------------------|
A|--10-------------------------------|-----------------------------------|
E|-----------------------------------|-----------------------------------|
 |  1 . + . 2 . + . 3 . + . 4 . + .     1 . + . 2 . + . 3 . + . 4 . + .  |
 |                                                                       |
G|-----------------------------------|-----------------------------------|
D|-----------------------------------|-----------------------------------|
A|--7--------------------------------|-----------------------------------|
E|-----------------------------------|-----------------------------------|
    [Ad lib.]                               [Conan jumps on star]




[END]


Tap to rate this tab
# A B C D E F G H I J K L M N O P Q R S T U V W X Y Z