Song name
# A B C D E F G H I J K L M N O P Q R S T U V W X Y Z

The Mayan Factor - Warflower tab

-------------------------------------------------------------------------------
			     Warflower - The Mayan Factor
-------------------------------------------------------------------------------
Tabbed by: Jeff Cameron
Email: jcameron99@gmail.com

Tuning: Drop D

I tabbed out the main sections of the song, you should be able to figure it out from 
 I didnít tab the solo, but itís mostly D pentatonic.  Enjoy!

The band has disbanded some time ago, so this is the closest I could find to an official website:
http://www.last.fm/music/The+Mayan+Factor

Intro
e|----------------------------------|-----------------------------------------|
B|----------------------------------|-----------------------------------------|
G|----0---0-3p0---0---0---0---0---0-|---0---0-3p0---0---0---0---0---0---------|
D|--5---5-------5---5---5---5---5---|-5---5-------5---5---5---5---5-----------|
A|----------------------------------|-----------------------------------------|
D|----------------------------------|-----------------------------------------|

e|----------------------------------|-----------------------------------------|
B|----------------------------------|-----------------------------------------|
G|----0---0-2p0---0---0---0---0---0-|---0---0-2p0---0---0---0---0---0---------|
D|--4---4-------4---4---4---4---4---|-4---4-------4---4---4---4---4-----------|
A|----------------------------------|-----------------------------------------|
D|----------------------------------|-----------------------------------------|

e|----------------------------------|-----------------------------------------|
B|----------------3-----------------|---------------3-------------------------|
G|----0---0-3p0-------0---0---0---0-|---0---0-3p0-------0---0---0---0---------|
D|--5---5-------5---5---5---5---5---|-5---5-------5---5---5---5---5-----------|
A|----------------------------------|-----------------------------------------|
D|----------------------------------|-----------------------------------------|

e|----------------------------------|-----------------------------------------|
B|----------------3-----------------|---------------3-------------------------|
G|----0---0-2p0-------0---0---0---0-|---0---0-2p0-------0---0---0---0---------|
D|--4---4-------4---4---4---4---4---|-4---4-------4---4---4---4---4-----------|
A|----------------------------------|-----------------------------------------|
D|----------------------------------|-----------------------------------------|

e|----------------------------------|-----------------------------------------|
B|----------------3-----------------|---------------3-------------------------|
G|----0---0-2p0-------0---0---0---0-|---0---0-2p0-------0---0---0---0---------|
D|--3---3-------3---3---3---3---3---|-3---3-------3---3---3---3---3-----------|
A|----------------------------------|-----------------------------------------|
D|----------------------------------|-----------------------------------------|

e|----------------------------------|-----------------------------------------|
B|----------------3-----------------|---------------3-------------------------|
G|----0---0-2p0-------0---0---0---0-|---0---0-2p0-------0---0---0---0---------|
D|--2---2-------2---2---2---2---2---|-2---2-------2---2---2---2---2-----------|
A|----------------------------------|-----------------------------------------|
D|----------------------------------|-----------------------------------------|

e|----------------------------------|-----------------------------------------|
B|----------------------------------|-----------------------------------------|
G|------0---2p0---3p0---0---2p0---0-|------0---2p0---3p0---0------------------|
D|----0---0-----0-----0---0-----0---|----0---0-----0-----0---0-3/5-5/7--------|
A|----------------------------------|-----------------------------------------|
D|--0-------------------------------|--0--------------------------------------|

e|----------------------------------|-----------------------------------------|
B|----------------------------------|-----------------------------------------|
G|------0---2p0---3p0---0---2p0---0-|------0---2p0---3p0---0------------------|
D|----0---0-----0-----0---0-----0---|----0---0-----0-----0---0-----3----------|
A|----------------------------------|----------------------------3------------|
D|--0-------------------------------|--0-----------------------3--------------|


e|----------------------------------|-----------------------------------------|
B|----------------------------------|-----------------------------------------|
G|------0---2p0---3p0---0---2p0---0-|------0---2p0---3p0---0------------------|
D|----0---0-----0-----0---0-----0---|----0---0-----0-----0---0-3/5-5/7--------|
A|----------------------------------|-----------------------------------------|
D|--0-------------------------------|--0--------------------------------------|

e|----------------------------------|-----------------------------------------|
B|----------------------------------|-----------------------------------------|
G|------0---2p0---3p0---0---2p0---0-|------0---2p0---3p0---0------------------|
D|----0---0-----0-----0---0-----0---|----0---0-----0-----0---0-----3----------|
A|----------------------------------|----------------------------3------------|
D|--0-------------------------------|--0-----------------------3--------------|

e|----------------------------------|-----------------------------------------|
B|----------------------------------|-----------------------------------------|
G|------0---2p0---3p0---0---2p0---0-|------0---2p0---3p0---0------------------|
D|----0---0-----0-----0---0-----0---|----0---0-----0-----0---0-3/5-5/7--------|
A|----------------------------------|-----------------------------------------|
D|--0-------------------------------|--0--------------------------------------|

e|----------------------------------|-----------------------------------------|
B|----------------------------------|-----------------------------------------|
G|------0---2p0---3p0---0---2p0---0-|------0---2p0---0------------------------|
D|----0---0-----0-----0---0-----0---|----0---0-----0----X--5--X--3------------|
A|----------------------------------|-------------------X--5--X--3------------|
D|--0-------------------------------|--0----------------X--5--X--3------------|


Verse
e|----------------------------------|-----------------------------------------|
B|----------------------------------|-----------------------------------------|
G|------2---2/3---3\2p0---0-2p0---0-|------2---2/3---3\2p0---0----------------|
D|----0---0-----0-------0-------0---|----0---0-----0-------0---3/5-5/7--------|
A|----------------------------------|-----------------------------------------|
D|--0-------------------------------|--0--------------------------------------|

e|----------------------------------|-----------------------------------------|
B|----------------------------------|-----------------------------------------|
G|------2---2/3---3\2p0---0-2p0---0-|------2---2/3---3/5\3---3/2p0---0--------|
D|----0---0-----0-------0-------0---|----0---0-----0-------0-------0----------|
A|----------------------------------|-----------------------------------------|
D|--0-------------------------------|--0--------------------------------------|

Verse version 2
e|----------------------------------|-----------------------------------------|
B|----------------------------------|-----------------------------------------|
G|------2---2/3---3\2p0---0-2p0---0-|------2---2/3---3\2p0---0----------------|
D|----0---0-----0-------0-------0---|----0---0-----0-------0---3/5-5/7--------|
A|----------------------------------|-----------------------------------------|
D|--0-------------------------------|--0--------------------------------------|

e|----------------------------------|-----------------------------------------|
B|----------------------------------|-----------------------------------------|
G|------2---2/3---3\2p0---0-2p0---0-|------2---2/3---0------------------------|
D|----0---0-----0-------0-------0---|----0---0-----0----5-x-3-x-2-0-----------|
A|----------------------------------|-------------------5-x-3-x-2-0-----------|
D|--0-------------------------------|--0----------------5-x-3-x-2-0-----------|

Chorus, strum all but last 4 notes
e|----------------------------------------------------------------------------|
B|---3-----8-----3-----8------------------------------------------------------|
G|---2-----7-----2-----7------------------------------------------------------|
D|---0-----5-----0-----5----5-x-3-x-2-0---------------------------------------|
A|---0-----5-----0-----5----5-x-3-x-2-0---------------------------------------|
D|---0-----5-----0-----5----5-x-3-x-2-0---------------------------------------|

Breakdown (5:07)
e|----------------------------------------------------------------------------|
B|----------------------------------------------------------------------------|
G|---------------10--------------10--------------10--------------10-----------|
D|---00-0-0-000--10--00-0-0-000--10--88-8-8-888--10--77-7-7-777--10-----------|
A|---00-0-0-000------00-0-0-000------88-8-8-888------77-7-7-777---------------|
D|---00-0-0-000------00-0-0-000------88-8-8-888------77-7-7-777---------------|


| /  slide up
| \  slide down
| h  hammer-on
| p  pull-off
| ~  vibrato
| +  harmonic
| x  Mute note
===============================================================================
Tap to rate this tab
# A B C D E F G H I J K L M N O P Q R S T U V W X Y Z