Song name
# A B C D E F G H I J K L M N O P Q R S T U V W X Y Z

The Mayan Factor - Hopi Elders tab

Artist: The Mayan Factor
Song: Hopi Elders
Album: In Lake'Ch

Intro: Am

e---------|---------|
B------5--|---------|
G--2-5----|--0-5-4--|
D---------|---------|
A---------|---------|
E---------|---------|

Verse: Am - C - G - F*

e--------------------|-----------3--3---3---|-----------5--5---5-|
B------------5-5--5--|----------------------|--------------------|
G--2---5/4-2-----2-2-|--2---5/4-2-----4---4-|--2---5/4-2-----5---|
D--------------------|----------------------|--------------------|
A--------------------|----------------------|--------------------|
E--------------------|----------------------|--------------------|

e-----------7--7---7----|
B----------------5---5--|
G--2---5/4-2------------|
D-----------------------|
A-----------------------|
E-----------------------|

I work in this .....
Tap to rate this tab
 
# A B C D E F G H I J K L M N O P Q R S T U V W X Y Z