Song name
# A B C D E F G H I J K L M N O P Q R S T U V W X Y Z

The Mayfield Four - Sick And Wrong tab

-------------------------------------------------------------------------------
			     Sick and Wrong - The Mayfield Four
-------------------------------------------------------------------------------
Tabbed by: T-unit33

Tuning: Drop-C

This is my first tab, so I apologize if there are any mistakes.  I couldn't find any 
on the net so I spent the day figuring this one out.
If you have any corrections, especially on the high notes during the chorus, I will be 
than happy to accept them.
Otherwise, Great song, Enjoy!

Intro/ Verse 1- Phaser & Distortion

e|--------------------------------------------------------------------------|
B|--------------------------------------------------------------------------|
G|-----11--10--12-----11--10--12--------------------------------------------|
D|------0---0---0------0---0---0--------------------------------------------|
A|--------------------------------------------------------------------------|
E|--------------------------------------------------------------------------|

Verse Cont.- Phaser & Distortion


e|----------------------------------------------------------------------|
B|----------------------------------------------------------------------|
G|-----1111111111111111--1010101010101010--1212121212121212-------------|  x2
D|------0-0-0-0-0-0-0-0---0-0-0-0-0-0-0-0---0-0-0-0-0-0-0-0-------------|
A|------0-0-0-0-0-0-0-0---0-0-0-0-0-0-0-0---0-0-0-0-0-0-0-0-------------|
E|------0-0-0-0-0-0-0-0---0-0-0-0-0-0-0-0---0-0-0-0-0-0-0-0-------------|

Chorus 1 - Distortion


e|---------------------------------------------5-----3-----8-----10------|
B|---------------------------------------------3-----1-----6------8------|
G|---------------------------------------------4-----2-----7------9------|x2
D|-----0-0-0-0-0-0-0-0---9-9-9-9-9-9-9-9---0-0---0-0---0-0---0-0---------|
A|-----0-0-0-0-0-0-0-0---9-9-9-9-9-9-9-9---0-0---0-0---0-0---0-0---------|
E|-----0-0-0-0-0-0-0-0---9-9-9-9-9-9-9-9---0-0---0-0---0-0---0-0---------|

Chorus 2 - Distortion


e|---------------------------------------------5-----3-----8-----10-----|
B|---------------------------------------------3-----1-----6------8-----|
G|---------------------------------------------4-----2-----7------9-----|  x3
D|-----0-0-0-0-0-0-0-0---9-9-9-9-9-9-9-9---0-0---0-0---0-0---0-0--------|
A|-----0-0-0-0-0-0-0-0---9-9-9-9-9-9-9-9---0-0---0-0---0-0---0-0--------|
E|-----0-0-0-0-0-0-0-0---9-9-9-9-9-9-9-9---0-0---0-0---0-0---0-0--------|

Chorus 2 Cont.


e|----------------------------------------------------------------|
B|----------------------------------------------------------------|
G|----------------------------------------------------------------|
D|------0-0-0-0-0-0-0-0---9-9-9-9-9-9-9-9-------------------------|
A|------0-0-0-0-0-0-0-0---9-9-9-9-9-9-9-9-------------------------|
E|------0-0-0-0-0-0-0-0---9-9-9-9-9-9-9-9-------------------------|

Bridge - Distortion


e|---------------------------------------------------15-----------------|
B|----------------8----------------13----------------15-----------------|  x2
G|----------------7----------------12-----------------------------------|
D|--0-0-0h2/3-0-0----0-0-0h2/3-0-0-----0-0-0h2/3-0-0----0-6-5-3-0-------|
A|--0-0-0h2/3-0-0----0-0-0h2/3-0-0-----0-0-0h2/3-0-0----0-6-5-3-0-------|
E|--0-0-0h2/3-0-0----0-0-0h2/3-0-0-----0-0-0h2/3-0-0----0-6-5-3-0-------|

Little Interlude Thing- listen for timing - Phaser in beginning, bring in distortion in 
half


e|----------------------------------------------------------------|
B|----------------------------------------------------------------|
G|----------------------------------------------------------------|
D|---0~-----0~-----0~-----0~------0000000000000000-x2-------------|
A|---0~-----0~-----0~-----0~------0000000000000000-x2-------------|
E|---0~-----0~-----0~-----0~------0000000000000000-x2-------------|

Outro - Distortion


e|-----------------------------------------------------------------------|
B|-----------------------------------------------------------------------| x2
G|-1111111111111111-1010101010101010-1212121212121212--------------------|
D|--0-0-0-0-0-0-0-0--0-0-0-0-0-0-0-0--0-0-0-0-0-0-0-0---0-3-2-0-3-2-2-0--|
A|------------------------------------------------------0-3-2-0-3-2-2-0--|
E|------------------------------------------------------0-3-2-0-3-2-2-0--|

Intro
Verse
Chorus 1
Verse
Chorus 2
Bridge
Chorus 2
Outro


************************************

| /   slide up
| \   slide down
| h   hammer-on
| p   pull-off
| ~   vibrato
| +   harmonic
| x   Mute note
| b   Bend
| pb  Pre-bend
| br  Bend release
| pbr Pre-bend release
| brb Bend release bend

************************************
Tap to rate this tab
# A B C D E F G H I J K L M N O P Q R S T U V W X Y Z