Song name
# A B C D E F G H I J K L M N O P Q R S T U V W X Y Z

The Mayfield Four - Backslide tab

Band: The Mayfield Four
Song: Backslide
CD:   Second Skin
Year: 2001
Tune: Drop D

(Taken from the guitar pro file, I take no credit for this.
However, I put the second guitar mostly in with the first
to make it easier to play. And rearranged the riffs a bit)
________________________
h   = hammer on         |
~   - vibrato           |
(x) - ghost note        |
________________________|


  Intro:
E|-4--4--4--4--4--4--4--4--4--4--4--4--4--4--4--4--|-4--4--4--4--4--4--4--4--4--4--4--4--4--4--4--4--|
B|-4--4--4--4--4--4--4--4--4--4--4--4--4--4--4--4--|-4--4--4--4--4--4--4--4--4--4--4--4--4--4--4--4--|
G|-5--5--5--5--5--5--5--5--5--5--5--5--5--5--5--5--|-5--5--5--5--5--5--5--5--5--5--5--5--5--5--5--5--|
D|-6--6--6--6--6--6--6--6--6--6--6--6--6--6--6--6--|-6--6--6--6--6--6--6--6--6--6--6--6--6--6--6--6--|
A|-6--6--6--6--6--6--6--6--6--6--6--6--6--6--6--6--|-6--6--6--6--6--6--6--6--6--6--6--6--6--6--6--6--|
D|-------------------------------------------------|-------------------------------------------------|

  Pre verse:
E|-----------------------------------------|-----------------------------------------|
B|-----------------------------------------|-----------------------------------------|
G|-----------------------------------------|-----------------------------------------|
D|-6---0--4--5--6---0--6---0--4--5--6---0--|-6---0--4--5--6---0--6---0--4--5--6---0--|
A|-6---0--4--5--6---0--6---0--4--5--6---0--|-6---0--4--5--6---0--6---0--4--5--6---0--|
D|-6---0--4--5--6---0--6---0--4--5--6---0--|-6---0--4--5--6---0--6---0--4--5--6---0--|


E|-----------------------------------------|-----------------------------------------|
B|-----------------------------------------|-----------------------------------------|
G|-----------------------------------------|-----------------------------------------|
D|-6---0--4--5--6---0--6---0--4--5--6---0--|-6---0--4--5--6---0--6---0--4--5--6---0--|
A|-6---0--4--5--6---0--6---0--4--5--6---0--|-6---0--4--5--6---0--6---0--4--5--6---0--|
D|-6---0--4--5--6---0--6---0--4--5--6---0--|-6---0--4--5--6---0--6---0--4--5--6---0--|

  Verse:
  (use a wah on
   these 2 chords)
E|-4------|-2------|-----------------------------------------|-----------------------------------------|
B|-6------|-2------|-----------------------------------------|-----------------------------------------|
G|-6------|-3------|-----------------------------------------|-----------------------------------------|
D|-6------|-4------|-6---0--4--5--6---0--6---0--4--5--6---0--|-6---0--4--5--6---0--6---0--4--5--6---0--|
A|-4------|-4------|-6---0--4--5--6---0--6---0--4--5--6---0--|-6---0--4--5--6---0--6---0--4--5--6---0--|
D|--------|--------|-6---0--4--5--6---0--6---0--4--5--6---0--|-6---0--4--5--6---0--6---0--4--5--6---0--|

  (use a wah on
   these 2 chords)
E|-4------|-2------|-----------------------------------------|-----------------------------------------|
B|-6------|-2------|-----------------------------------------|-----------------------------------------|
G|-6------|-3------|-----------------------------------------|-----------------------------------------|
D|-6------|-4------|-6---0--4--5--6---0--6---0--4--5--6---0--|-6---0--4--5--6---0--6---0--4--5--6---0--|
A|-4------|-4------|-6---0--4--5--6---0--6---0--4--5--6---0--|-6---0--4--5--6---0--6---0--4--5--6---0--|
D|--------|--------|-6---0--4--5--6---0--6---0--4--5--6---0--|-6---0--4--5--6---0--6---0--4--5--6---0--|

  Prechorus:
E|-------------------------------------------------|-------------------------------------------------|
B|-------------------------------------------------|-------------------------------------------------|
G|-------------------------------------------------|-------------------------------------------------|
D|-2--2--2--2--2--2--2--2--2--2--2--2--2--2--2--2--|-2--2--2--2--2--2--2--2--2--2--2--2--2--2--2--2--|
A|-2--2--2--2--2--2--2--2--2--2--2--2--2--2--2--2--|-2--2--2--2--2--2--2--2--2--2--2--2--2--2--2--2--|
D|-2--2--2--2--2--2--2--2--2--2--2--2--2--2--2--2--|-2--2--2--2--2--2--2--2--2--2--2--2--2--2--2--2--|

                                                     (use wah)
E|-------------------------------------------------|--------------------------------------------|
B|-------------------------------------------------|-4h6--6--4h6--6--4h6--6--4h6--6--4h6--6--6--|
G|-6--6--6--6--6--6--6--6--6--6--6--6--6--6--6--6--|-4h6--6--4h6--6--4h6--6--4h6--6--4h6--6--6--|
D|-6--6--6--6--6--6--6--6--6--6--6--6--6--6--6--6--|-4h6--6--4h6--6--4h6--6--4h6--6--4h6--6--6--|
A|-4--4--4--4--4--4--4--4--4--4--4--4--4--4--4--4--|--------------------------------------------|
D|-------------------------------------------------|--------------------------------------------|

  Chorus:
E|-4--4--4--4--4--4--4--4--4--4--4--4--4--4--4--4--|
B|-4--4--4--4--4--4--4--4--4--4--4--4--4--4--4--4--|
G|-5--5--5--5--5--5--5--5--5--5--5--5--5--5--5--5--|
D|-6--6--6--6--6--6--6--6--6--6--6--6--6--6--6--6--|
A|-6--6--6--6--6--6--6--6--6--6--6--6--6--6--6--6--|
D|-6--6--6--6--6--6--6--6--6--6--6--6--6--6--6--6--|

E|-4--4--4--4--4--4--4--4--4--4--4--4--4--4--4--4--|
B|-4--4--4--4--4--4--4--4--4--4--4--4--4--4--4--4--|
G|-5--5--5--5--5--5--5--5--5--5--5--5--5--5--5--5--|
D|-6--6--6--6--6--6--6--6--6--6--6--6--6--6--6--6--|
A|-6--6--6--6--6--6--6--6--6--6--6--6--6--6--6--6--|
D|-------------------------------------------------|

E|-2--2--2--2--2--2--2--2--2--2--2--2--2--2--2--2--|
B|-2--2--2--2--2--2--2--2--2--2--2--2--2--2--2--2--|
G|-3--3--3--3--3--3--3--3--3--3--3--3--3--3--3--3--|
D|-4--4--4--4--4--4--4--4--4--4--4--4--4--4--4--4--|
A|-4--4--4--4--4--4--4--4--4--4--4--4--4--4--4--4--|
D|-------------------------------------------------|

E|-2--2--2--2--2--2--2--2--2--2--2--2--2--2--2--2--|
B|-2--2--2--2--2--2--2--2--2--2--2--2--2--2--2--2--|
G|-3--3--3--3--3--3--3--3--3--3--3--3--3--3--3--3--|
D|-4--4--4--4--4--4--4--4--4--4--4--4--4--4--4--4--|
A|-4--4--4--4--4--4--4--4--4--4--4--4--4--4--4--4--|
D|-------------------------------------------------|

E|-4---4---4---4---4---4---4---4---|-2---2---2---2---2---2---2---2---|
B|-6---6---6---6---6---6---6---6---|-4---4---4---4---2---2---2---2---|
G|-6---6---6---6---6---6---6---6---|-4---4---4---4---3---3---3---3---|
D|-6---6---6---6---6---6---6---6---|-4---4---4---4---4---4---4---4---|
A|-4---4---4---4---4---4---4---4---|-2---2---2---2---4---4---4---4---|
D|---------------------------------|---------------------------------|

Pre verse:
E|-----------------------------------------|-----------------------------------------|
B|-----------------------------------------|-----------------------------------------|
G|-----------------------------------------|-----------------------------------------|
D|-6---0--4--5--6---0--6---0--4--5--6---0--|-6---0--4--5--6---0--6---0--4--5--6---0--|
A|-6---0--4--5--6---0--6---0--4--5--6---0--|-6---0--4--5--6---0--6---0--4--5--6---0--|
D|-6---0--4--5--6---0--6---0--4--5--6---0--|-6---0--4--5--6---0--6---0--4--5--6---0--|


  Verse:
  (use a wah on
   these 2 chords)
E|-4------|-2------|-----------------------------------------|-----------------------------------------|
B|-6------|-2------|-----------------------------------------|-----------------------------------------|
G|-6------|-3------|-----------------------------------------|-----------------------------------------|
D|-6------|-4------|-6---0--4--5--6---0--6---0--4--5--6---0--|-6---0--4--5--6---0--6---0--4--5--6---0--|
A|-4------|-4------|-6---0--4--5--6---0--6---0--4--5--6---0--|-6---0--4--5--6---0--6---0--4--5--6---0--|
D|--------|--------|-6---0--4--5--6---0--6---0--4--5--6---0--|-6---0--4--5--6---0--6---0--4--5--6---0--|

  (use a wah on
   these 2 chords)
E|-4------|-2------|-----------------------------------------|-----------------------------------------|
B|-6------|-2------|-----------------------------------------|-----------------------------------------|
G|-6------|-3------|-----------------------------------------|-----------------------------------------|
D|-6------|-4------|-6---0--4--5--6---0--6---0--4--5--6---0--|-6---0--4--5--6---0--6---0--4--5--6---0--|
A|-4------|-4------|-6---0--4--5--6---0--6---0--4--5--6---0--|-6---0--4--5--6---0--6---0--4--5--6---0--|
D|--------|--------|-6---0--4--5--6---0--6---0--4--5--6---0--|-6---0--4--5--6---0--6---0--4--5--6---0--|

  Prechorus:
E|-------------------------------------------------|-------------------------------------------------|
B|-------------------------------------------------|-------------------------------------------------|
G|-------------------------------------------------|-------------------------------------------------|
D|-2--2--2--2--2--2--2--2--2--2--2--2--2--2--2--2--|-2--2--2--2--2--2--2--2--2--2--2--2--2--2--2--2--|
A|-2--2--2--2--2--2--2--2--2--2--2--2--2--2--2--2--|-2--2--2--2--2--2--2--2--2--2--2--2--2--2--2--2--|
D|-2--2--2--2--2--2--2--2--2--2--2--2--2--2--2--2--|-2--2--2--2--2--2--2--2--2--2--2--2--2--2--2--2--|

                                                     (use wah)
E|-------------------------------------------------|--------------------------------------------|
B|-------------------------------------------------|-4h6--6--4h6--6--4h6--6--4h6--6--4h6--6--6--|
G|-6--6--6--6--6--6--6--6--6--6--6--6--6--6--6--6--|-4h6--6--4h6--6--4h6--6--4h6--6--4h6--6--6--|
D|-6--6--6--6--6--6--6--6--6--6--6--6--6--6--6--6--|-4h6--6--4h6--6--4h6--6--4h6--6--4h6--6--6--|
A|-4--4--4--4--4--4--4--4--4--4--4--4--4--4--4--4--|--------------------------------------------|
D|-------------------------------------------------|--------------------------------------------|


  Chorus:
E|-4--4--4--4--4--4--4--4--4--4--4--4--4--4--4--4--|
B|-4--4--4--4--4--4--4--4--4--4--4--4--4--4--4--4--|
G|-5--5--5--5--5--5--5--5--5--5--5--5--5--5--5--5--|
D|-6--6--6--6--6--6--6--6--6--6--6--6--6--6--6--6--|
A|-6--6--6--6--6--6--6--6--6--6--6--6--6--6--6--6--|
D|-6--6--6--6--6--6--6--6--6--6--6--6--6--6--6--6--|

E|-4--4--4--4--4--4--4--4--4--4--4--4--4--4--4--4--|
B|-4--4--4--4--4--4--4--4--4--4--4--4--4--4--4--4--|
G|-5--5--5--5--5--5--5--5--5--5--5--5--5--5--5--5--|
D|-6--6--6--6--6--6--6--6--6--6--6--6--6--6--6--6--|
A|-6--6--6--6--6--6--6--6--6--6--6--6--6--6--6--6--|
D|-------------------------------------------------|

E|-2--2--2--2--2--2--2--2--2--2--2--2--2--2--2--2--|
B|-2--2--2--2--2--2--2--2--2--2--2--2--2--2--2--2--|
G|-3--3--3--3--3--3--3--3--3--3--3--3--3--3--3--3--|
D|-4--4--4--4--4--4--4--4--4--4--4--4--4--4--4--4--|
A|-4--4--4--4--4--4--4--4--4--4--4--4--4--4--4--4--|
D|-------------------------------------------------|

E|-2--2--2--2--2--2--2--2--2--2--2--2--2--2--2--2--|
B|-2--2--2--2--2--2--2--2--2--2--2--2--2--2--2--2--|
G|-3--3--3--3--3--3--3--3--3--3--3--3--3--3--3--3--|
D|-4--4--4--4--4--4--4--4--4--4--4--4--4--4--4--4--|
A|-4--4--4--4--4--4--4--4--4--4--4--4--4--4--4--4--|
D|-------------------------------------------------|

E|-4---4---4---4---4---4---4---4---|-2---2---2---2---2---2---2---2---|
B|-6---6---6---6---6---6---6---6---|-4---4---4---4---2---2---2---2---|
G|-6---6---6---6---6---6---6---6---|-4---4---4---4---3---3---3---3---|
D|-6---6---6---6---6---6---6---6---|-4---4---4---4---4---4---4---4---|
A|-4---4---4---4---4---4---4---4---|-2---2---2---2---4---4---4---4---|
D|---------------------------------|---------------------------------|

  Bridge:
E|---------------------------------------------|
B|-7---7--7--7--7--7--7--7---7--7--7--7--7--7--|
G|---------------------------------------------|
D|-6---6--6--4--6--6--4--6---6--6--4--6--6--4--|
A|---------------------------------------------|
D|---------------------------------------------|


E|---------------------------------------------|---------------------------------------------|
B|-7---7--7--7--7--7--7--7---7--7--7--7--7--7--|-7---7--7--7--7--7--7--7---7--7--7--7--7--7--|
G|---------------------------------------------|---------------------------------------------|
D|-6---6--6--4--6--6--4--6---6--6--4--6--6--4--|-6---6--6--4--6--6--4--6---6--6--4--6--6--4--|
A|---------------------------------------------|---------------------------------------------|
D|---------------------------------------------|---------------------------------------------|


E|---------------------------------------------|
B|-7---7--7--7--7--7--7--7---7--7--7--7--7--7--|
G|---------------------------------------------|
D|-6---6--6--4--6--6--4--6---6--6--4--6--6--4--|
A|---------------------------------------------|
D|---------------------------------------------|

Solo: (use the chorus as rhythm)
E|-------------|-------------|-----------------------------------------|---------------------------------------|
B|-------------|-------------|-----------------------------------------|---------------------------------------|
G|-8~~~--5~~~--|-6~~~--8~~~--|-6---6--4--6---6--4--6---6--4--6---6--4--|-6---6--4--6---6--4--6---6--4--6-------|
D|-------------|-------------|-----------------------------------------|---------------------------------------|
A|-------------|-------------|-----------------------------------------|---------------------------------------|
E|-------------|-------------|-----------------------------------------|---------------------------------------|


E|-9---(9)------|---------------------11----|-6----6----6-------------------|-11-11-9--8--9--8-----8---------------------|
B|--------------|-----9--12-9----12---------|----------------7----7----7----|-------------------11----11-9--11-9--7--9---|
G|--------------|---------------------------|-------------------------------|--------------------------------------------|
D|--------------|---------------------------|-------------------------------|--------------------------------------------|
A|--------------|---------------------------|-------------------------------|--------------------------------------------|
E|--------------|---------------------------|-------------------------------|--------------------------------------------|


Chorus: (twice)
  Chorus:
E|-4--4--4--4--4--4--4--4--4--4--4--4--4--4--4--4--|
B|-4--4--4--4--4--4--4--4--4--4--4--4--4--4--4--4--|
G|-5--5--5--5--5--5--5--5--5--5--5--5--5--5--5--5--|
D|-6--6--6--6--6--6--6--6--6--6--6--6--6--6--6--6--|
A|-6--6--6--6--6--6--6--6--6--6--6--6--6--6--6--6--|
D|-6--6--6--6--6--6--6--6--6--6--6--6--6--6--6--6--|

E|-4--4--4--4--4--4--4--4--4--4--4--4--4--4--4--4--|
B|-4--4--4--4--4--4--4--4--4--4--4--4--4--4--4--4--|
G|-5--5--5--5--5--5--5--5--5--5--5--5--5--5--5--5--|
D|-6--6--6--6--6--6--6--6--6--6--6--6--6--6--6--6--|
A|-6--6--6--6--6--6--6--6--6--6--6--6--6--6--6--6--|
D|-------------------------------------------------|

E|-2--2--2--2--2--2--2--2--2--2--2--2--2--2--2--2--|
B|-2--2--2--2--2--2--2--2--2--2--2--2--2--2--2--2--|
G|-3--3--3--3--3--3--3--3--3--3--3--3--3--3--3--3--|
D|-4--4--4--4--4--4--4--4--4--4--4--4--4--4--4--4--|
A|-4--4--4--4--4--4--4--4--4--4--4--4--4--4--4--4--|
D|-------------------------------------------------|

E|-2--2--2--2--2--2--2--2--2--2--2--2--2--2--2--2--|
B|-2--2--2--2--2--2--2--2--2--2--2--2--2--2--2--2--|
G|-3--3--3--3--3--3--3--3--3--3--3--3--3--3--3--3--|
D|-4--4--4--4--4--4--4--4--4--4--4--4--4--4--4--4--|
A|-4--4--4--4--4--4--4--4--4--4--4--4--4--4--4--4--|
D|-------------------------------------------------|

E|-4---4---4---4---4---4---4---4---|-2---2---2---2---2---2---2---2---|
B|-6---6---6---6---6---6---6---6---|-4---4---4---4---2---2---2---2---|
G|-6---6---6---6---6---6---6---6---|-4---4---4---4---3---3---3---3---|
D|-6---6---6---6---6---6---6---6---|-4---4---4---4---4---4---4---4---|
A|-4---4---4---4---4---4---4---4---|-2---2---2---2---4---4---4---4---|
D|---------------------------------|---------------------------------|


Outro:
E|-----------------------------------------|
B|-----------------------------------------|
G|-----------------------------------------|
D|-6---0--4--5--6---0--6---0--4--5--6---0--|
A|-6---0--4--5--6---0--6---0--4--5--6---0--|
D|-6---0--4--5--6---0--6---0--4--5--6---0--|


E|-----------------------------------------|-----------------------------------------|
B|-----------------------------------------|-----------------------------------------|
G|-----------------------------------------|-----------------------------------------|
D|-6---0--4--5--6---0--6---0--4--5--6---0--|-6---0--4--5--6---0--6---0--4--5--6---0--|
A|-6---0--4--5--6---0--6---0--4--5--6---0--|-6---0--4--5--6---0--6---0--4--5--6---0--|
D|-6---0--4--5--6---0--6---0--4--5--6---0--|-6---0--4--5--6---0--6---0--4--5--6---0--|

                                                          (use wah)
E|-----------------------------------------|-------------|--------|
B|-----------------------------------------|-------------|--------|
G|-----------------------------------------|-6-----6-----|-6------|
D|-6---0--4--5--6---0--6---0--4--5--6---0--|-6-----6-----|-6------|
A|-6---0--4--5--6---0--6---0--4--5--6---0--|-4-----4-----|-4------|
D|-6---0--4--5--6---0--6---0--4--5--6---0--|-------------|--------|
Tap to rate this tab
 
# A B C D E F G H I J K L M N O P Q R S T U V W X Y Z