Song name
# A B C D E F G H I J K L M N O P Q R S T U V W X Y Z

The Mclovins - Tokyo Tea tab

Intro
e|------------------------------------------------------|
B|------------------------------------------------------|
G|-------2p0-----------------------4---------3----------|
D|----------------2-2p0----------4---4-----3---3--------|
A|-----------------------0h2----------------------------|
E|--0-0-------0h3------------0h2-------0h1--------------|

Verse
e|--7-x-7----10-x-10----12-x-12-----8-x--8--------------|
B|--8-x-8----10-x-10-----9-x--9----10-x-10--------------|
G|--7-x-7-----x-x--x----11-x-11-----9-x--9--------------|
D|--9-x-9-----9-x--9-----9-x--9----10-x-10--------------|
A|--7-x-7----10-x-10-----x-x--x-----8-x--8--------------|
E|----x---------x--------x-x--x-------x-----------------|

Then comes a little groove and then a blistering, phishy sounding solo in e.


http://www.themclovins.com/fr_home.cfm
Tap to rate this tab
 
# A B C D E F G H I J K L M N O P Q R S T U V W X Y Z