Song name
# A B C D E F G H I J K L M N O P Q R S T U V W X Y Z

The Mclovins - Cohesive tab

COHESIVE  BY:  THE MCLOVINS-----------tabbed by bmc27

Great jam song off the single “cohesive”. It’s a good idea to listen to the song when
attempting this it helps a lot. thanks for checking this out. enjoy

Intro Riff
E--------9-7-x----------------5-|
B--7-/-9-----x-8-8------------5-|
G--------------7-7-------7-x--6-|
D------------------------7-x--7-|
A------------------7-h-9------7-|
E-----------------------------5-|

this is played throught the verse

Pre-Chorus
E----------------------|
B----------------------|
G--------------9-9---7-|
D--------------9-9---7-|
A--4-4-5-5-6-6-7-7---5-| ect
E----------------------|

Chorus

When they say "i need to feel cohesive"

the chords are A,G,and D. you can apply them from there its pretty straight forward.

Bridge

Chords are A---G---D---B repeats twice before landing on an A chord for yet another 
spectacular solo.

please rate if you found this helpful
Tap to rate this tab
# A B C D E F G H I J K L M N O P Q R S T U V W X Y Z