Song name
# A B C D E F G H I J K L M N O P Q R S T U V W X Y Z

The Medic Droid - Fer Sure tab

tabs by: Shaneh :P listen to the song to get it down rite

Kick off your stilletos...
Your always falling in disquise...
kick off your stilletos...
E|-------------------|------------------------:(play 3x)
B|-------------------|------------------------:
G|-5-55-5-5-55-5-5-5/|------------------------:
D|-3-33-3-3-33-3-3-3/|-6-66-6-6-666-6-6-------:
A|-------------------|-4-44-4-4-444-4-4-------:
E|-------------------|------------------------:


Fer Sure Maybe...
E|---|---|----------------|
B|---|---|----------------|
G|-5-|---|----------------|
D|-3-|-6-|6-6-6-6-66666666|
A|---|-4-|4-4-4-4-44444444|
E|---|--------------------|

This is the end....
E|---|---|-|------------------|
B|---|---|-|------------------|
G|-5-|---|-|----5-------------|
D|-3-|-6-|5|-6--3--6-666666---|
A|---|-4-|3|-4-----4-444444---|
E|---|---|-|------------------|

We're not falling in love...
This is how the beat goes...
(palm muted)
E|-----------|
B|-----------|
G|-55-5555---|
D|-33-3333---|
A|-----------|
E|-----------|


This is how the beat drops, | i wanna see your panties
this is how the beat drops..| drop girl now
E|--------------------------|------------------------:
B|--------------------------|------------------------:
G|-5-55-5-5-55-5-5-5/-------|------------------------:
D|-3-33-3-3-33-3-3-3/-------|-6-66-6-6-666-6-6-------:
A|--------------------------|-4-44-4-4-444-4-4-------:
E|--------------------------|------------------------:

All this time is wasted...
But thats alright...
E|-----------|
B|-----------|
G|-55-5555---|
D|-33-3333---|
A|-----------|
E|-----------|

So dont let go....
(hold out until 2nd verse)
E|-----------|
B|-----------|
G|-5---------|
D|-3---------|
A|-----------|
E|-----------|

Pulled up at a stoplite...
Did drugs on the dashoboard....
Kick off your stilletos...
your always falling in disquise...
kick off your stilletos....
E|--------------------------|------------------------:
B|--------------------------|------------------------:
G|-5-55-5-5-55-5-5-5/-------|------------------------:
D|-3-33-3-3-33-3-3-3/-------|-6-66-6-6-666-6-6-------:
A|--------------------------|-4-44-4-4-444-4-4-------:
E|--------------------------|------------------------:

Fer Sure Maybe...
E|---|---|----------------|
B|---|---|----------------|
G|-5-|---|----------------|
D|-3-|-6-|6-6-6-6-66666666|
A|---|-4-|4-4-4-4-44444444|
E|---|--------------------|

This is the end....
E|---|---|-|------------------|
B|---|---|-|------------------|
G|-5-|---|-|----5-------------|
D|-3-|-6-|5|-6--3--6-666666---|
A|---|-4-|3|-4-----4-444444---|
E|---|---|-|------------------|

We're not falling in love...
This is how the beat goes...
(palm muted)
E|-----------|
B|-----------|
G|-55-5555---|
D|-33-3333---|
A|-----------|
E|-----------|


This is how the beat drops, | i wanna see your panties
this is how the beat drops..| drop girl now
E|--------------------------|------------------------:
B|--------------------------|------------------------:
G|-5-55-5-5-55-5-5-5/-------|------------------------:
D|-3-33-3-3-33-3-3-3/-------|-6-66-6-6-666-6-6-------:
A|--------------------------|-4-44-4-4-444-4-4-------:
E|--------------------------|------------------------:

All this time is wasted...
But thats alright...
E|-----------|
B|-----------|
G|-55-5555---|
D|-33-3333---|
A|-----------|
E|-----------|

So dont let go....
no jkjkjk lololol....
(hold out until chorus again)
E|-----------|
B|-----------|
G|-5---------|
D|-3---------|
A|-----------|
E|-----------|

We're not falling in love...
This is how the beat goes...
(palm muted)
E|-----------|
B|-----------|
G|-55-5555---|
D|-33-3333---|
A|-----------|
E|-----------|


This is how the beat drops, | i wanna see your panties
this is how the beat drops..| drop girl now
E|--------------------------|------------------------:
B|--------------------------|------------------------:
G|-5-55-5-5-55-5-5-5/-------|------------------------:
D|-3-33-3-3-33-3-3-3/-------|-6-66-6-6-666-6-6-------:
A|--------------------------|-4-44-4-4-444-4-4-------:
E|--------------------------|------------------------:

All this time is wasted...
But thats alright...
E|-----------|
B|-----------|
G|-55-5555---|
D|-33-3333---|
A|-----------|
E|-----------|

cos u no i love....
but thats alright
(hold out and let fade)
E|-----------|
B|-----------|
G|-5---------|
D|-3---------|
A|-----------|
E|-----------|
Tap to rate this tab
# A B C D E F G H I J K L M N O P Q R S T U V W X Y Z