Song name
# A B C D E F G H I J K L M N O P Q R S T U V W X Y Z

The Medics - City tab

Intro

e|------------------------------------------------------------------|
B|------------------------------------------------------------------|
G|-16(x7)-14(x7)-12(x7)-11(x7)-4(x7)-7(x7)-9(x7)11-11---11-11-11-11-|
D|-xx-----xx-----xx-----xx-----x-----x-----x-----x-x-----x--x--x--x-|
A|-14-----12-----10------9-----2-----5-----7-----9-9-----9--9--9--9-|
E|------------------------------------------------------------------|

Main Riff

e|---------------------------|---------------------------------------|
B|---------------------------|---------------------------------------|
G|--9-7-------9-9-7-7--------|-9-7-----------------------------------|
D|------9-9-7---------9-9-7-7|------9-9-7-8-8-9-9-11-11-12-12--------| (x2)
A|---------------------------|---------------------------------------|
E|---------------------------|---------------------------------------|


Verse

e|--------------------------------------------------|
B|--------------------------------------------------|
G|---4------9------6------11------------------------| 
D|---x------x------x-------x------------------------|
A|---2------7------4-------9------------------------|
E|--------------------------------------------------|

e|--------------------------------------------------|
B|--------------------------------------------------|
G|---4------9------6------11-11----11-11-11-11------| 
D|---x------x------x-------x--x-----x--x--x--x------|
A|---2------7------4-------9--9-----9--9--9--9------|
E|--------------------------------------------------|

Main Riff
e|------------------------------------------------------------------|
B|------------------------------------------------------------------|
G|--9-7-------9-9-7-7---------9-7-----------------------------------|
D|------9-9-7---------9-9-7-7------9-9-7-8-8-9-9-11-11-12-12--------| (x2)
A|------------------------------------------------------------------|
E|------------------------------------------------------------------|


Verse

e|--------------------------------------------------|
B|--------------------------------------------------|
G|---4------9------6------11------------------------| 
D|---x------x------x-------x------------------------|
A|---2------7------4-------9------------------------|
E|--------------------------------------------------|

e|--------------------------------------------------|
B|--------------------------------------------------|
G|---4------9------6------11-11----11-11-11-11------| 
D|---x------x------x-------x--x-----x--x--x--x------|
A|---2------7------4-------9--9-----9--9--9--9------|
E|--------------------------------------------------|


Main Riff
e|------------------------------------------------------------------|
B|------------------------------------------------------------------|
G|--9-7-------9-9-7-7---------9-7-----------------------------------|
D|------9-9-7---------9-9-7-7------9-9-7-8-8-9-9-11-11-12-12--------| (x2)
A|------------------------------------------------------------------|
E|------------------------------------------------------------------|


Bridge

e|------------------------------------------------------------------|
B|------------------------------------------------------------------|
G|-16(x7)-14(x7)-12(x7)-11(x7)-4(x7)-7(x7)-9(x7)11-11---11-11-11-11-|
D|-xx-----xx-----xx-----xx-----x-----x-----x-----x-x-----x--x--x--x-|
A|-14-----12-----10------9-----2-----5-----7-----9-9-----9--9--9--9-|
E|------------------------------------------------------------------|


Main Riff                                                            End
e|----------------------------------------------------------|     |--------|
B|----------------------------------------------------------|     |----4---|
G|--9-7-------9-9-7-7---------9-7---------------------------|     |----x---|
D|------9-9-7---------9-9-7-7------9-9-7-8-8-9-9-11-11-12-12|(x4) |----2---| 
A|----------------------------------------------------------|     |--------|
E|----------------------------------------------------------|     |--------|
Tap to rate this tab
# A B C D E F G H I J K L M N O P Q R S T U V W X Y Z