Song name
# A B C D E F G H I J K L M N O P Q R S T U V W X Y Z

The Medusa Cascade - Regeneration Is Useless With Two Broken Hearts tab

           *This is straight from Harvey (The Medusa Cascade)*
              http://www.myspace.com/themedusacascademusic

     REGENERATION IS USELESS (WITH TWO BROKEN HEARTS) - The Medusa Cascade
-------------------------------------------------------------------------------
Tabbed by: Harvey of The Medusa Cascade
Email: idpreferaflan@live.co.uk

I wrote this song for 'Trock On'(a compilation of Doctor Who inspired songs)in late
2009. The response has been wonderful and it is not until late 2010 that I have finally
around to tabbing the song out. Thank you so much for your support and praising 
I couldn't appreciate it more. I only hope that this tab is satisfactory as the amount of
I have received for it is overwhelming.

Thank you again,

Harvey TMC

Tuning: Half step down


Intro

  Part i
e|-----2---5p2-----3-----2-----0-|-----2----5p2--------3-----2-----0-|
B|---3---------3-----3-----3-----|---3-----------3-------3-----3-----|
G|-0----0--------0-----0-----0---|-4-----4---------4-------4-----4---|
D|-------------------------------|-----------------------------------|
A|-------------------------------|-----------------------------------|
E|-------------------------------|-----------------------------------|

  Part ii
e|-----2---5p2-----3-----2-----0-|-----2----5p2------0h2p0-----------|
B|---3---------3-----3-----3-----|---3-----------3---------3---------|
G|-0----0--------0-----0-----0---|-4-----4---------4---------4-------|
D|-------------------------------|-----------------------------------|
A|-------------------------------|-----------------------------------|
E|-------------------------------|-----------------------------------|

Quiet part of verse

e|-----2---5-|-----2---5-|-----2---5-|-----2-0h2p0-------------------|
B|---3-------|---3-------|---3-------|---3---------3-----------------|
G|-0-----0---|-4-----4---|-0-----0---|-4-------------4---------------|
D|-----------|-----------|-----------|-------------------------------|
A|-----------|-----------|-----------|-------------------------------|
E|-----------|-----------|-----------|-------------------------------|

Verse

Repeat intro part i x4

Chorus

e|-----2-5/7-5-2-|-----0h2-----0-----0h2-----0-|x2
B|---3---7/8-7-3-|---3-------3-----3-------3---|
G|-0-------------|-4-------4-----2-------2-----|
D|---------------|-----------------------------|
A|---------------|-----------------------------|
E|---------------|-----------------------------|

Verse

Chorus

Build up
                       "I just wanna hold you!"
e|-------3p2-----------|-----|---------------------------|
B|-----3-----3-----7/8-|-7-8-|-7-8-8-8-8-8-8-8-8-8-8-8-8-|
G|---2-----------7-7---|-7-7-|-7-7-7-7-7-7-7-7-7-7-7-7-7-|
D|-0-----------5-------|-5-5-|-5-5-5-5-5-5-5-5-5-5-5-5-5-|
A|---------------------|-----|---------------------------|
E|---------------------|-----|---------------------------|

Ending
   Bm              A               D               G
e|-2-2-2-2-2-2-2-2-0-0-0-0-0-0-0-0-2-2-2-2-2-2-3-2-3-3-3-3-3-3-3-3-|
B|-3-3-3-3-3-3-3-3-2-2-2-2-2-2-2-2-3-3-3-3-3-3-3-3-3-3-3-3-3-3-3-3-|
G|-4-4-4-4-4-4-4-4-2-2-2-2-2-2-2-2-2-2-2-2-2-2-2-2-0-0-0-0-0-0-0-0-|
D|-4-4-4-4-4-4-4-4-2-2-2-2-2-2-2-2-0-0-0-0-0-0-0-0-0-0-0-0-0-0-0-0-|
A|-2-2-2-2-2-2-2-2-0-0-0-0-0-0-0-0-----------------2-2-2-2-2-2-2-2-|
E|-------------------------------------------------3-3-3-3-3-3-3-3-|

   Bm              A               G
e|-2-2-2-2-2-2-2-2-0-0-0-0-0-0-0-0-3-3-3-3-3-3-3-3-3-3-3-3-3-3-3-3-|
B|-3-3-3-3-3-3-3-3-2-2-2-2-2-2-2-2-3-3-3-3-3-3-3-3-3-3-3-3-3-3-3-3-|
G|-4-4-4-4-4-4-4-4-2-2-2-2-2-2-2-2-0-0-0-0-0-0-0-0-0-0-0-0-0-0-0-0-|
D|-4-4-4-4-4-4-4-4-2-2-2-2-2-2-2-2-0-0-0-0-0-0-0-0-0-0-0-0-0-0-0-0-|
A|-2-2-2-2-2-2-2-2-0-0-0-0-0-0-0-0-2-2-2-2-2-2-2-2-2-2-2-2-2-2-2-2-|
E|---------------------------------3-3-3-3-3-3-3-3-3-3-3-3-3-3-3-3-|

Outro

Bm, A, D, G, Bm, A, G arpeggiated
Tap to rate this tab
 
# A B C D E F G H I J K L M N O P Q R S T U V W X Y Z