Song name
# A B C D E F G H I J K L M N O P Q R S T U V W X Y Z

The Meg And Dia Band - Sta Barbara tab

Highlighted       Show chord diagrams
Meg And Dia
Sta. Barbara
Our Home Is Gone
2004
Submitted by: paramore_fans@yahoo.com

Key: C

Tuning: Standard EADGBe

Chords used:
C -   x32010
G -   320003
Am -  x02210
FM7 - xx3210
Bm -  x24432
G/B - x2x003


Intro:
         C              G                       Am
e|---------0---3-|-1------1---0-|----------------12--12--0-0-0-0-0-0-|
B|-1-1-3-1---1---|--------------|-----1---1h3h5--13--13--1-1-1-3-3-1-|
G|---------------|----0-0---0---|----------------14--14--2-2-2-2-2-2-|
D|---------------|--------------|------------------------2-2-2-2-2-2-|
A|---------------|--------------|-0-0---0----------------0-0-0-0-0-0-|
E|---------------|--------------|------------------------------------|

           C               Bm           Am
e|---------0---12--12-|-2-2-2-2-2-|-0-0-0-0-0-0-|
B|-1-1-3-1---1-13--13-|-3-3-3-3-3-|-1-1-1-1-1-1-|
G|-------------12--12-|-4-4-4-4-4-|-2-2-2-2-2-2-|
D|--------------------|-4-4-4-4-4-|-2-2-2-2-2-2-|
A|--------------------|-2-2-2-2-2-|-0-0-0-0-0-0-|
E|--------------------|-----------|-------------|


Verse 1:
  FM7
I Pray for them
I often loose track
     C
So I took a drag
      G/B
of my first cigarrette
      FM7
and I found my head
Roll down the dumps
   C G/B
of 27th street
  FM7
I drew a sketch
with lipstick and sidewalk
   C
of Newports edge
G/B
Legoblock cliffs
       FM7
and an ocean that doesn't
deserve the
          G
sounds of silence
I'd swear on a
dead artists grave


Chorus:
    Am
And I found a spot
          G
where the drunk
never got to
   C
it rocks me gently
silent silent
   Am
If I never surface
G
it doesn't matter
C
Hold my breath
It's silent silent


Verse 2:
FM7
Diligent
Escape by the water
   C
Not sick of it
   G/B
It only gets harder
          FM7
That's no excuse
to block all
the cliches and
C      G/B
reason for kicks
    FM7
He strokes her hair
both sitting on sand
        C
and her shoulders bare
  G/B
nothing to demand of them
FM7
laying back on a
lonely stone wall
    C
and passersby
     G/B
look passed it all


(Repeat Chorus)


Interlude: Am-G-C-G/B x2


(Repeat Chorus)
Tap to rate this tab
# A B C D E F G H I J K L M N O P Q R S T U V W X Y Z