Song name
# A B C D E F G H I J K L M N O P Q R S T U V W X Y Z

The Meg And Dia Band - Halloween tab

-------------------------------------------------------------------------------
			     Halloween - Meg & Dia
-------------------------------------------------------------------------------
Tabbed by:Inna
Email:Santiagoinna1992@yahoo.com

Tuning:standard

Hi! this is my first tab, so sorry if its a little off. :)
i'm 99.8% that this these are the exact tabs meg and dia played in their bathroom 
of the song. anyways tell me what you think about the tabs

listen to the song to find the strum pattern :)

Intro/Verse

e|---------------------------|
B|--8------------------------|
G|--9-----5----------7-------|
D|--9-----5-----5----7-------| X2 (strum each 4x)
A|--7-----3-----5----5-------|
E|--------------3------------|

Pre-Chorus

e|---------------------------------------------|
B|---------------------------------------------|
G|--5--------7---------9---------7-------------|
D|--5-(x5)---7-(x5)----9-(x5)----7-(x3)--------|
A|--3--------5---------7---------5-------------|
E|---------------------------------------------|

e|-----------------------------------------------------------|
B|-----------------------------------------------------------|
G|---5---------7---------7--------5--------5--------7--------|
D|---5-(x5)----7-(x5)----7-(x2)---5-(x2)---5-(x5)---7-(x1)---|
A|---3---------5---------9--------7--------3--------5--------|
E|-----------------------------------------------------------|

Chorus

e|----------------------------------------------|   |-------------------|
B|----------------------------------------------|   |----------6--------|
G|----------------------------------------------|   |----------7--------|
D|---5-------9--------10-------9--------10------|X2 |-5--------7--------|
A|---5-(x5)--10-(x5)--10-(x3)--10-(x3)--10-(x3)-|   |-5-(x5)---5-(x10)--|
E|---3-------7--------8--------7--------8-------|   |-3-----------------|


Verse 2

e|---------------------------------------------|
B|---------------------------------------------|
G|--5--------7---------9---------7-------------|
D|--5-(x5)---7-(x5)----9-(x5)----7-(x3)--------| X3
A|--3--------5---------7---------5-------------|
E|---------------------------------------------|

e|-----------------------------------------------------------|
B|-----------------------------------------------------------|
G|---5---------7---------7--------5--------5-----------------|
D|---5-(x5)----7-(x5)----7-(x2)---5-(x2)---5-(x5)------------|
A|---3---------5---------9--------7--------3-----------------|
E|-----------------------------------------------------------|


Pre-Chorus

e|-----------------------------------------------------------|
B|-----------------------------------------------------------|
G|---5---------7---------7--------5--------5--------7--------|
D|---5-(x5)----7-(x5)----7-(x2)---5-(x2)---5-(x5)---7-(x1)---|
A|---3---------5---------9--------7--------3--------5--------|
E|-----------------------------------------------------------|


Chorus

e|---------------------------------------------|   |-------------------|
B|---------------------------------------------|   |-------------------|
G|---------------------------------------------|   |----------4--------|
D|---3-------9--------10-------9--------10-----|X2 |-3--------5--------|
A|---3-(x5)--10-(x5)--10-(x3)--10-(x3)--10-(x6)|   |-3-(x5)---5(x10)---|
E|---1-------7--------8-------7---------8------|   |-1--------3--------|


Verse 3

e|----------------------------------------|
B|--8--------6--------4-------------------|
G|--9--------7--------5--------7----------|
D|--9-(x15)--7-(x15)--5-(x15)--5----------|
A|--7--------5--------3--------5-(x15)----|
E|-----------------------------3----------|

e|----------------------------------------|
B|--8--------6--------4-------------------|
G|--9--------7--------5--------7----------|
D|--9-(x15)--7-(x15)--5-(x15)--5----------|
A|--7--------5--------3--------5-(x1)-----|
E|-----------------------------3----------|


Outro/Chorus

e|---------------------------------------------------------------|
B|--------------------------------------------------------6------|
G|--------------------------------------------------------7------|
D|---3-------9--------10-------9--------10-------9--------7-(x15)|
A|---3-(x5)--10-(x5)--10-(x3)--10-(x3)--10-(x3)--10-(x3)--5------|
E|---1-------7--------8--------7--------8--------7---------------|

e|----------------------------------------------------------------------|
B|-------------------------------------------------------4--------------|
G|-------------------------------------------------------5--------2-----|
D|---3-------9--------10-------9--------10-------3-------5-(x11)--3-----|
A|---3-(x5)--10-(x5)--10-(x3)--10-(x3)--10-(x6)--3-(x5)--3--------3-(x1)|
E|---1-------7--------8-------7---------8--------1----------------1-----|


| /  slide up
| \  slide down
| h  hammer-on
| p  pull-off
| ~  vibrato
| +  harmonic
| x  Mute note
===============================================================================
Tap to rate this tab
# A B C D E F G H I J K L M N O P Q R S T U V W X Y Z