Song name
# A B C D E F G H I J K L M N O P Q R S T U V W X Y Z

The Meg And Dia Band - Black Wedding tab

-------------------------------------------------------------------------------
			     SONG NAME - Band Name
-------------------------------------------------------------------------------
Tabbed by: evanescence345
Email:

Tuning:

e|------------------------------------------------------------------------------|
B|-------10------------------------------------------10-------------------------|
G|---8-----10-----------------------------------8--------10---------------------|
D|------------------------------------------------------------------------------|
A|-------------------------8-----------10---------------------------------------|
E|------------------------6----------8------------------------------------------|


| /  slide up
| \  slide down
| h  hammer-on
| p  pull-off
| ~  vibrato
| +  harmonic
| x  Mute note
Tap to rate this tab
 
# A B C D E F G H I J K L M N O P Q R S T U V W X Y Z