Guitaretab - guitar tabs
Song name
# A B C D E F G H I J K L M N O P Q R S T U V W X Y Z

The Meg And Dia Band - Inside My Head chords

Highlighted       Show chord diagrams
Meg And Dia
Inside My Head
Here Here Here
2009
Submitted by: paramore_fans@yahoo.com

Key: G

Tuning: Standard EADGBe

Chords used:
Em -  022000
Em4 - 022300
C -   x32010
G -   320033
D -   xx0232
Cm -  x35543
G -   320033
Am -  x02210


Intro:
                   Em                             Em4
e|-12--12--10-12-10--12-10-12-10-12-15-|-17---17-15-17-15-------|
B|-------------------------------------|------------------17-15-|
G|-------------------------------------|------------------------|
D|-------------------------------------|------------------------|
A|-------------------------------------|------------------------|
E|-------------------------------------|------------------------|

     C        Cm                         Em
e|--------|--------|-19-19-15-15-----19-19-15-15----------------|
B|-15h17~-|--------|-------------17--------------17-15-17-15-17-|
G|--------|-14h15~-|--------------------------------------------|
D|--------|--------|--------------------------------------------|
A|--------|--------|--------------------------------------------|
E|--------|--------|--------------------------------------------|

                       C                       Cm
e|-15-17-19-17---0-2-3-2-0--0-2-3-2-0--5--7-|-5h6~-|
B|------------------------------------------|------|
G|------------------------------------------|------|
D|------------------------------------------|------|
A|------------------------------------------|------|
E|------------------------------------------|------|

Chorus 1:
Em                   Em4
  He's got inside my head
                    C
He's sleeping in my bed
                   Cm
He's got hold of my hand

[ Tab from: http://www.guitaretab.com/t/the-meg-and-dia-band/187713.html ]
Verse 1:
Em
I am not anymore surprised at your
                        D
phone calls at 4 in the morning
(Hello hello)
                            G
You try to write me letters like
you've transformed into Charles
                  C
Dickens overnight or something
                     Em
(Oh I'm sorry) And I doubt that
you've considered that maybe
Just maybe those genes
              D
that you were forced in
                        G
Although heavy are no excuse for
your lack of trust in anyone even
C  Em
you My boyfriend used my palm as an
D                           G        C
ashtray And that was on his good days
Em                               D
  My scar looks like a bear or a rabbit
                             G      C
They said "It's just his bad habits"


(Repeat Chorus)


Verse 2:
Em
I'm not even scared
to come cure your
                   D
past or try to reinvent
it (Just leave it alone)
I can be your lover
         G
and your mother
And your father
who never really
                C
had to take you fishing
or teach compassion
Em
  You used my voice
         D
as your spokesman
You couldn't walk
        G
on your own feet
                 C
ain't that horrid


Chorus 2:
Em                   Em4
  He's got inside my head
                    C
He's sleeping in my bed
                   Cm
He's got hold of my hand
What's the use I've
caught the blindness
Em                   C
  He's got inside my head
                    C
He's sleeping in my bed
                   Cm
He's got hold of my hand


Bridge:
Am
Are you going to tell me that you
                C
can't bear this weight that was a
                           G   D
present 12 years from this day?
     Am
Well this town's on the
edge of the dry dry ocean
C
And you're thinking
you're immune
                   G
to getting torn or more
D        Em      C Em C
Yeah Yeah Come on


Interlude: Em--C-- x2


Chorus 3:
Em                   Em4
  He's got inside my bed
                    C
He's sleeping in my head
                   Cm
He's got hold of my hand
What's the use I've
caught the blindness
Em                   C
  He's got inside my bed
                    C
He's sleeping in my head
                   Cm
He's got hold of my hand
What's the use I've
                Em(hold)
caught the blindness
Related for Inside My Head chords
Advertisement will be closed in 10 seconds