Song name
# A B C D E F G H I J K L M N O P Q R S T U V W X Y Z

The Meg And Dia Band - Setting Up Sunday tab

standard tuning EADGBe
Setting Up Sunday solo played by meg at their M-Theory Music Store performance.  The video
for this solo is on the youtube link below.
http://www.youtube.com/watch?v=tBiF9Bu9UJ4
The solo takes place between 3:31 and 4:00 in the video, but is not found on any of 
other performances or tracks.

(3:31)
e|--------------------------------------------------------------------------|
b|------------------8h10----------------------------------------------------|
G|--9-9-7-9-7-9-12--------12-7h9-5--------5------------5h7-9-12-9-12-9-7-12-|
D|----------------------------------7--7-----7-5-2-5------------------------|
A|--------------------------------------------------------------------------|
E|--------------------------------------------------------------------------|

(3:39)
e|----------------------12-10-8---------------------------------------------|
b|-----10-13-10-13-10-------------------------------------------------------|
G|--9----------------------------7-(7-7h9-7-7h9-7-7-7h9-7-7h9-7)3 times-7h9-|
D|--------------------------------------------------------------------------|
A|--------------------------------------------------------------------------|
E|--------------------------------------------------------------------------|

(3:49)
e|----------------------------------------------15-------------15-----------|
b|--------------------------------------------------13~-13h15------13~--13--|
G|----------------7h9----------------9-7-12-9-------------------------------|
D|--10-7-10-7-10-------10-7-10-7-10-----------------------------------------|
A|--------------------------------------------------------------------------|
E|--------------------------------------------------------------------------|
Tap to rate this tab
# A B C D E F G H I J K L M N O P Q R S T U V W X Y Z