Song name
# A B C D E F G H I J K L M N O P Q R S T U V W X Y Z

The Meg And Dia Band - Santa Barbara Acoustic tab

Help us improve GuitareTab! Take a short survey!
-----------------------------------------------------------------
Santa Barbara (Acoustic) - The Meg and Dia Band
-----------------------------------------------------------------
Tabbed by: Sarah Gormley
Email: sarahgormley82@hotmail.com

Tuning: Standard

I only know the beginning bit. I have tried to show how long Meg plays the chords for 
the numbers at the top to represent seconds. I don't know if this is accurate coz it's my 
tab. Listen to the record to get the timing right.


Intro:                        1   2  3
e|------3--1---1-0------------33--------------------------------|
B|--3-3---------------3h5-3h5-55--11h3p1------------------------|
G|55-5-------00-0---55--------55--22-2-2------------------------|
D|-----5--------------------------22-2-2------------------------|
A|--------------------------------------------------------------|
E|--------------------------------------------------------------|

           12  12 3 4
e|------3-------------------------------------------------------|
B|--3-3----33--11h3p1-------------------------------------------|
G|55-5-----44--22-2-2-------------------------------------------|
D|-----5---44--22-2-2-------------------------------------------|
A|--------------------------------------------------------------|
E|--------------------------------------------------------------|

Verse:
e|-3-3-3-3---3-3-3-3---3-3-3-3---3-3-3-3---3-3-3-3---3-3-3-3----|
B|-3-3-3-3---3-3-3-3---3-3-3-3---3-3-3-3---3-3-3-3---3-3-3-3----|
G|-5-5-5-5---4-4-4-4---5-5-5-5---4-4-4-4---5-5-5-5---4-4-4-4----|
D|-5-5-5-5---5-5-5-5---5-5-5-5---5-5-5-5---5-5-5-5---5-5-5-5----|
A|-3-3-3-3---5-5-5-5---3-3-3-3---5-5-5-5---3-3-3-3---5-5-5-5----|
E|-3-3-3-3---3-3-3-3---3-3-3-3---3-3-3-3---3-3-3-3---3-3-3-3----|

| /  slide up
| \  slide down
| h  hammer-on
| p  pull-off
| ~  vibrato
| +  harmonic
| x  Mute note
Related for Santa Barbara Acoustic tab