Song name
# A B C D E F G H I J K L M N O P Q R S T U V W X Y Z

The Meg And Dia Band - Roses Acoustic tab

Meg and Dia: Roses (Acoustic)
From: Something Real
Standard Tuning

Intro and Verse:
e[-4--0-]
B[-5--0-]
G[-6--6-]X6
D[-6--7-]
A[-4--7-]
E[----5-]

Pre-Chorus Part1:
e[-----0-]
B[-----0-]
G[-6-9-6-]X2
D[-6-9-7-]
A[-4-7-7-]
E[-----5-]

Pre-Chorus Part2:
e[-2-2-x-2-2-2-x-2-2-2-x-2-2-2-0-0-0-0-0-]
B[-2-2-x-2-2-2-x-2-2-2-x-2-2-2-2-2-2-2-1-]
G[-3-3-x-3-3-3-x-3-3-3-x-3-3-3-2-2-2-2-2-]X1
D[-4-4-x-4-4-4-x-4-4-4-x-4-4-4-2-2-2-2-2-]
A[-4-4-x-4-4-4-x-4-4-4-x-4-4-4-0-0-0-0-0-]
E[-2-2-x-2-2-2-x-2-2-2-x-2-2-2-0-0-0-0-0-]

Chorus:
e[-0-4-0-0-]
B[-0-4-2-1-]
G[-1-4-2-2-]X2 strum each chord one time
D[-2-6-2-2-]
A[-2-6-0-0-]
E[-0-4-0-0-]

Repeat Verse

Repeat Pre-Chorus Pt. 1 and 2

Repeat Chorus but play 4 times and strum each chord more than one time

Bridge:
e[-4-0-0-]
B[-5-0-0-]
G[-6-6-8-]X2 Check video for strumming
D[-6-7-9-]
A[-4-7-9-]
E[---5-7-]

Then Play prechorus pt. 1 and 2. You play pt. 2 a little different watch the video and 
what i mean. That's about it. Enjoy!!!!
Tap to rate this tab
# A B C D E F G H I J K L M N O P Q R S T U V W X Y Z