Guitaretab - guitar tabs
Song name
# A B C D E F G H I J K L M N O P Q R S T U V W X Y Z

The Meg And Dia Band - Santa Barbara tab

Intro:

E---------------------------------------------------------------------------|
B---------------58----6--------65-------------------------5-5-------------|
G--5-57-7---------------0-0--------------------5-57-7---------------------|
D--------------------------------------------7-7----------------------------|
A---------------------------------------------------------------------------|
E---------------------------------------------------------------------------|

E3----------------------|
B1------3------1--------|
G2------2------2--------|
D2------2------2--------|
A------------------------|
E------------------------|
[ Tab from: http://www.guitaretab.com/t/the-meg-and-dia-band/95217.html ]
E--------------------------------------------------|
B-----------------5-5----5-----4-----1-------------|
G5-57-7-----------5-----5-----2------------------|
D-------------------------5-----5-----2------------|
A--------------------------------------------------|
E--------------------------------------------------|

Verse:
         (3x)         [on a dead artists grave]
E3------------3-------------|
B5------------5-------------|
G5---5---5---5--------------|
D3---5---5---3---5----------|
A3---3---2---3---5----------|
E---------------------3------|

Chorus:

   Am-Gm [I found a spot, where the drunk never got to..]

E-------------------------------------------|
B-----------------5-8---6---------6-5-------|
G5-57-7--------------0-0------------------|
D-------------------------------------------|
A-------------------------------------------|
E-------------------------------------------|
[and it rocks me gently, silent, silent]

i still haven't tabbed the bridge, sorry MAD lovers.
Related for Santa Barbara tab