Song name
# A B C D E F G H I J K L M N O P Q R S T U V W X Y Z

The Melodians - Come On Little Girl chords

Highlighted       Show chord diagrams
Band - The Melodians
Song - Come On Little Girl
Album - Rivers Of Babylon - The Best Of The Melodians 1967-1973

Tabbed By: Tyler Freear (SumFX)

Really Cool Song By Ska/Reggae Legends!
Very Easy Song To Play, Just 3 Chords G C D

I Have Included Both Tab And Chords For Those That Want To Sing As Well:
Tab On Top
Chords At Bottom

/=Slide Into Chord

----------------------------------------------------------------------------
                                 Tab

Intro
Verse 2
  G    D
|-3-3--------|
|-3-3--7-7---|
|-4-4--7-7---|
|-5-5--7-7---|
|-5-5--5-5---|
|-3-3--------|

Chorus 1
  G    D           C    D
|-3-3--------|   |-----------|
|-3-3--7-7---|   |-5-5--7-7--|
|-4-4--7-7---| x2|-5-5--7-7--|
|-5-5--7-7---|   |-5-5--7-7--|
|-5-5--5-5---|   |-3-3--5-5--|
|-3-3--------|   |-----------|

Verses 1 & 3
Chorus 2, 3, 4 & 6
  G    D          C     D
|-3-3--------|   |-----------|
|-3-3--7-7---|   |-5-5--7-7--|
|-4-4--7-7---| x3|-5-5--7-7--|
|-5-5--7-7---|   |-5-5--7-7--|
|-5-5--5-5---|   |-3-3--5-5--|
|-3-3--------|   |-----------|

Chorus 5 (Variation)
 F#/G      D           C  C/D
|-2/3-3-3-------|    |-----------|
|-2/3-3-3--7-7--|    |-5--5/7-7--|
|-3/4-4-4--7-7--| x3 |-5--5/7-7--|
|-4/5-5-5--7-7--|    |-5--5/7-7--|
|-4/5-5-5--5-5--|    |-3--3/5-5--|
|-2/3-3-3-------|    |-----------|

Intro
Chorus 1
Verse  1
Chorus 2
Verse  2
Chorus 3
Verse  3
Chorus 4
Instrumental
Chorus 4 (Variation)
Chorus 5
----------------------------------------------------------------------------
                                  Chords
/////////Intro Instrumental/////////
             G D G D
             G D G D

Chorus 1
G                   D
Come on little girl come on,
G                   D
Come on little girl come on
C                 D
Come on dance with me

Verse 1
G           D   
I need someone to
G          D
Dance with me and
G           D
That someone i've 
C         D
chosen is you, so

Chorus 2
G                          D
Come on little girl come on,
G                          D
Come on little girl come on
G                          D
Come on little girl come on
C                       D
Come on rock me in my soul

Verse 2
G                  D
Don't say the word, no,
G                     D
That would make me run away.
G          D
I need someone
G                D
Someone like you, so

Chorus 3
G                          D
Come on little girl come on,
G                          D
Come on little girl come on
G                          D
Come on little girl come on
C                  D
Come on dance with me

/////////Instrumental/////////
          G D G D
          G D G D
          G D G D
          G D C D
        
Chorus 4
G                          D
Come on little girl come on,
G                          D
Come on little girl come on
G                          D
Come on little girl come on
C                  D
Come on dance with me

Verse 3
G                  D
Don't say the word, no,
G                     D
That would make me run away.
G          D
I need someone
C               D
Someone like you, so

Chorus 5 (Variation)
/G                          D
Come on little girl come on,
/G                          D
Come on little girl come on
/G                          D
Come on little girl come on
C                  /D
Come on dance with me

Chorus 6
G                          D
Come on little girl come on,
G                          D
Come on little girl come on
G                          D
Come on little girl come on
C                          D
come on rock me in my soul.

----------------------------------------------------------------------------
There You Go, It Was Suprisingly Hard To Figure Out The Structure Of The 
Song, As Some Of The Parts Are Very Similar.

Rate, Comments & Corrections Are Welcomed :)
Tap to rate this tab
 
# A B C D E F G H I J K L M N O P Q R S T U V W X Y Z