Song name
# A B C D E F G H I J K L M N O P Q R S T U V W X Y Z

The Menzingers - Irish Goodbyes tab

Artist: The Menzingers
Song: Irish Goodbyes


When I get home....

e|--2----0----2----2----4----0----2------------------------------------------|
B|--4----0----4----2----4----0----4------------------------------------------|
G|--4----1----4----3----4----1----4------------------------------------------|
D|--4----2----4----4----6----2----4------------------------------------------|
A|--2----2----2----4----6----2----2------------------------------------------|
E|-------0---------2----4----0-----------------------------------------------|



And I'm going down....

e|--4----2----2----4----2----2-------0------2--------------------------------|
B|--4----2----4----4----2----4-------0------2--------------------------------|
G|--4----3----4----4----3----4-------1------3--------------------------------|
D|--6----4----4----6----4----4-------2------4--------------------------------|
A|--6----4----2----6----4----2-------2------4--------------------------------|
E|--4----2---------4----2------------0------2--------------------------------|



Solo

e|---11b----11b---11b---11b--------------------------------------------------|
B|---14b-14b---14b---14b----14--12-12-12h14-12-------------------------------|
G|----------------------------------------------13-11h13-11------------------|
D|----------------------------------------------------------13-11h13-11------|
A|----------------------------------------------------------------------14---|
E|---------------------------------------------------------------------------|


e|---------------------------------------------------------------------------|
B|---1212h14---12h14---12h14---12-14b14b14b14b14b-12-12-14b14b14b14b14b-12---|
G|----------13------13------13-----------------------------------------------|
D|---------------------------------------------------------------------------|
A|---------------------------------------------------------------------------|
E|---------------------------------------------------------------------------|

e|-----------------------------------------16161616-19191919-21212121--------|
B|---12121212-14141414-16161616--19191919------------------------------------|
G|---------------------------------------------------------------------------|
D|---------------------------------------------------------------------------|
A|---------------------------------------------------------------------------|
E|---------------------------------------------------------------------------|
Tap to rate this tab
 
# A B C D E F G H I J K L M N O P Q R S T U V W X Y Z