Song name
# A B C D E F G H I J K L M N O P Q R S T U V W X Y Z

The Menzingers - Time Tables tab

Artist: The Menzingers
Song: Time Tables


e|---------------------------------------------------------------------------|
B|---------------------------------------------------------------------------|
G|-----0-2p0-0-0--2p0--------2-0---------------------------------------------|
D|---2----------------2p0--------2-3-3-2-0-----------------------------------|
A|-3-------------------------------------------------------------------------|
E|---------------------------------------------------------------------------|
       (play 3 times)

e|---------------------------------------------------------------------------|
B|---------------------------------------------------------------------------|
G|-5----9------------------------5-------------------------------------------|
D|-5----9----7----3----7----3----5----5--------------------------------------|
A|-3----7----7----3----7----3----3----5--------------------------------------|
E|-----------5----1----5----1---------3--------------------------------------|

e|---------------------------------------------------------------------------|
B|-------------8----6---6-----8---6---6------5-------------------------------|
G|-5----9----5---5----5-----5---5---5------7---7-5---5---5-7b-5---5----------|
D|-5----9------------------------------------------7---7--------7------------|
A|-3----7--------------------------------------------------------------------|
E|---------------------------------------------------------------------------|

e|----------------------------|
B|---5------------------------|
G|-7---7-5---5---5------------|
D|---------7---7---7-5--------|
A|---------------------7------|
E|----------------------------|

e|---------------------------------------------------------------------------|
B|---------------------------------------------------------------------------|
G|-5----9------------------------5-------------------------------------------|
D|-5----9----7----3----7----3----5----5--------------------------------------|
A|-3----7----7----3----7----3----3----5--------------------------------------|
E|-----------5----1----5----1---------3--------------------------------------|

e|---------------------------------------------------------------------------|
B|-------------8----6---6-----8---6---6------5-------------------------------|
G|-5----9----5---5----5-----5---5---5------7---7-5---5---5-7b-5---5----------|
D|-5----9------------------------------------------7---7--------7------------|
A|-3----7--------------------------------------------------------------------|
E|---------------------------------------------------------------------------|

e|---------------------------------------------------------------------------|
B|---5-----------------------------------------------------------------------|
G|-7---7-5---5---5----------------5-------------------5----------------------|
D|---------7---7---7-5--------7---5---3---2---5---7---5---3---2--------------|
A|---------------------7------7---3---3---2---5---7---3---3---2--------------|
E|----------------------------5-------1---0---3---5-------1---0--------------|

e|----------------------------|
B|----------------------------|
G|-5----9---------------------|
D|-5----9----7----3----5------|
A|-3----7----7----3----5------|
E|-----------5----1----3------|
Tap to rate this tab
# A B C D E F G H I J K L M N O P Q R S T U V W X Y Z