Song name
# A B C D E F G H I J K L M N O P Q R S T U V W X Y Z

The Menzingers - A Lesson In The Abuse Of Information Technology tab

Artist: The Menzingers
Song: A Lesson In The Abuse Of Information Technology


Chorus
e|---------------------------------------------------------------------------|
B|---------------------------------------------------------------------------|
G|-7777777---7--------77777---11---9----44444444----7777777------------------|
D|-7777777---7---5----77777-------------44444444----7777777-----------555555-|
A|-5555555---5---5----55555---9----7----22222222----5555555---7---9---555555-|
E|---------------3----------------------------------------------------333333-|
   (Muted)


e|---------------------------------------------------------------------------|
B|---------------------------------------------------------------------------|
G|-7777777---11---9----4444444-----------------------------------------------|
D|-7777777-------------4444444-------4---5---4---5---------------------------|
A|-5555555---9----7----2222222-------4---5---4---5---------------------------|
E|-----------------------------------2---3---2---3---------------------------|



Verse
e|---------------------------------------------------------------------------|
B|---------------------------------------------------------------------------|
G|-444---666---7777----11---9-----------7----9-------------------------------|
D|-444---666---7777----------------------------------------------------------|
A|-222---444---5555----9----7-----------5----7-------------------------------|
E|---------------------------------------------------------------------------|
                                    (Play last time through)

Chorus

e|---------------------------------------------------------------------------|
B|---------------------------------------------------------------------------|
G|-7---------77777----11---9----44444444----777777---------------------------|
D|-7----5----77777--------------44444444----777777-------------5555555-------|
A|-5----5----55555----9----7----22222222----555555---7----9----5555555-------|
E|------3------------------------------------------------------3333333-------|
                                                                   

e|---------------------------------------------------------------------------|
B|---------------------------------------------------------------------------|
G|-7777777---11---9----4444444-----7------4------7---------------------------|
D|-7777777-------------4444444-----7------4------7---------------------------|
A|-5555555---9----7----2222222-----5------2------5---------------------------|
E|---------------------------------------------------------------------------|


e|---------------------------------------------------------------------------|
B|---------------------------------------------------------------------------|
G|-7--9--11--12---11--9----14---12---11---14---12----7----9----12----14------|
D|---------------------------------------------------------------------------|
A|-5--7--9---10---9---7----12---10---9----12---10----5----7----10----12------|
E|---------------------------------------------------------------------------|


Chorus
Tap to rate this tab
# A B C D E F G H I J K L M N O P Q R S T U V W X Y Z