Song name
# A B C D E F G H I J K L M N O P Q R S T U V W X Y Z

The Menzingers - Mea Culpa Cabana tab

. It may not be exactly what they play but it sounds close and is fun and sounds good. 
Listen for  individual strumming pattern because it is really on 3 "chords".  Email me 
with any corrections or questions.

-------------------------------------------------------------------------------
                             MEA CULPA CABANA- The Menzingers
-------------------------------------------------------------------------------
Tabbed by: KG
E-mail:undergradtech@gmail.com

Tuning: Standard:  Capo on 4


e|--------4----------0---------0-----------------------------------------------|
B|--------0----------0---------0-----------------------------------------------|
G|----4---4-----4----4------2--4-----------------------------------------------|
D|--2-----2----0-----0----4----2-----------------------------------------------|
A|-----------------------------4-----------------------------------------------|
E|-----------------------------------------------------------------------------|
Tap to rate this tab
# A B C D E F G H I J K L M N O P Q R S T U V W X Y Z