Song name
# A B C D E F G H I J K L M N O P Q R S T U V W X Y Z

The Menzingers - Lilith Avi tab

-----------------------------------------------------------------------------
                             LILITH AVI - The Menzingers
-----------------------------------------------------------------------------
Tuning: Standard

Here, I tried to make this tab pretty detailed. If there aren't both guitars tabbed out 
it either means that one isn't playing or they're playing similar/identical things.

Intro:
   A
e|---------------------------------------------------------|
B|-------------------------------------------0--2--0-------|
G|-----2------2------2------2------2------2-----------2----|
D|---2------2------2------0------2------2------------------|
A|-0------0------0------0------0------0--------------------|
E|---------------------------------------------------------|

   A
e|----------------------------------|
B|----------------------------------|
G|-----2-------2-------2-------2----|x8
D|---2-------2-------2-------0------|
A|-0-------0-------0-------0--------|
E|----------------------------------|
 |                                  |
e|-------7----------------7---------|
B|---5-------5---5---5-------5---5--|
G|----------------------------------|
D|-7---7-------7---7---7-------7----|
A|----------------------------------|
E|----------------------------------|

   F#m                                A
e|----------------------------------|----------------------------------|
B|----------------------------------|----------------------------------|
G|-----2-------2-------2-------2----|-----2-------2-------2-------2----|
D|----------------------------------|---2-------2-------2-------2------|
A|---0-------0-------0-------0------|-0-------0-------0-------0--------|
E|-2-------2-------2-------2--------|----------------------------------|
 |                                  |                                  |
e|-------7----------------7---------|-------7----------------7---------|
B|---5-------5---5---5-------5---5--|---5-------5---5---5-------5---5--|
G|----------------------------------|----------------------------------|
D|-7---7-------7---7---7-------7----|-7---7-------7---7---7-------7----|
A|----------------------------------|----------------------------------|
E|----------------------------------|----------------------------------|

   E                                  D
e|----------------------------------|----------------------------------|
B|----------------------------------|----------------------------------|
G|-----1-------1-------1-------1----|-----2-------2-------2-------2----|
D|----------------------------------|---0-------0-------0-------0------|
A|---2-------2-------2-------2------|-0-------0-------0-------0--------|
E|-0-------0-------0-------0--------|----------------------------------|
 |                                  |                                  |
e|-------7----------------7---------|-------7----------------7---------|
B|---5-------5---5---5-------5---5--|---5-------5---5---5-------5---5--|
G|----------------------------------|----------------------------------|
D|-7---7-------7---7---7-------7----|-7---7-------7---7---7-------7----|
A|----------------------------------|----------------------------------|
E|----------------------------------|----------------------------------|

Then go back to the A riff, and repeat it all

Pre-Verse:
e|------------------------------------|--|-------------------|
B|------------------------------------|--|-------------------|
G|-2---2---2----------1---1---1-------|x2|-2----------22222--|
D|-2---2---2----------2---2---2-------|--|-2-22222222222222--|
A|-0---0---0----------2---2---2-------|--|-0-00000000000000--|
E|--------------------0---0---0-------|--|-------------------|
                                             pm.......

Verse:

e|--------------------------------------------|
B|--------------------------------------------|
G|-2-------------------2--------2--2----------|
D|-2--22-22-2-22425242-2--22222-2--2-222222---|
A|-0--00400-0-00000000-0--00000-0--0-000000---|
E|--------------------------------------------|
 |    pm...   ........    .....      ......   |
 |                                            |
e|--------------------------------------------|
B|--------------------------------------------|
G|--------------p-p-p-------------------------|
D|-7---7----7-7-405420-7--------7--7----------|
A|-7---7-77-7-7--------7--7777--7--7-777777---|
E|-5---5-55-5-5--------5--5555--5--5-555555---|


e|------------------0----------------------------|
B|-------------------2---------------------------|
G|--------------------2--2--2------2-------------|
D|-4--4------4--4------0-2--2-2222-2-22222222----|
A|-4--4-4444-4--4-4------0--0-0000-0-00000000----|
E|-2--2-2222-2--2-2------------------------------|
 |      pm..      .           ....   ........    |
 |                                               |
e|-----------------------------------------------|
B|-----------------------------------------------|
G|-11-11-----11----11----------------------------|
D|-11-11-----11----11----7--7------7-------------|
A|-9--9--99999-----9-----7--7-7777-7-77777777----|
E|-----------------------5--5-5555-5-55555555----|


e|-------------------------------------------|
B|---------------------3--3----3----3--------|
G|-1--1----1-----1-----2--2----2----2--------|
D|-2--2----2-----2-----0--0----0----0--------|
A|-2--2----2-----2-----0--0----0----0--------|
E|-0--0----0-----0---------------------------|


e|---5--5-5-5-4---4-4-4-7-7-7-7---|
B|---5--5-5-5-5---5-5-5-5-5-5-5---|
G|--------------------------------|
D|--------------------------------|
A|--------------------------------|
E|--------------------------------|
 |                                |
e|--------------------------------|
B|--------------------------------|
G|---2--------6---6-6-6-4-4-4-4---|
D|-2-2--2-2-2-x---x-x-x-x-x-x-x---|
A|-0-0--0-0-0-4---4-4-4-2-2-2-2---|
E|--------------------------------|
   pm   . . .

Repeat whole verse twice


Chorus:                                [Repeat 3x 2nd time]
e|-5--5--55-5--5-555-4--4--44-4--4-444-|-2-2--2----------|----------------|
B|-5--5--55-5--5-555-5--5--55-5--5-555-|-2-2--2----------|----------------|
G|-------------------------------------|-2-2--2--1--1--1-|-2-2-------2--2-|
D|-------------------------------------|-4-4--4--2--2--2-|-2-2--2----2--2-|
A|-------------------------------------|---------2--2--2-|-0-0--2----0--0-|
E|-------------------------------------|---------0--0--0-|------0---------|
 |                                                                        |
e|-------------------------------------|-----------------|----------------|
B|-------------------------------------|-----------------|----------------|
G|-6--6--66-6--6-666-1--1--11-1--1-111-|-2-2--2--1--1--1-|-6-6--6-6--6--6-|
D|-7--7--77-7--7-777-2--2--22-2--2-222-|-4-4--4--2--2--2-|-7-7--7-7--7--7-|
A|-7--7--77-7--7-777-2--2--22-2--2-222-|-4-4--4--2--2--2-|-7-7--7-7--7--7-|
E|-5--5--55-5--5-555-0--0--00-0--0-000-|-2-2--2--0--0--0-|-5-5--5-5--5--5-|

Outro:
e|-------------------------------------22222222--|
B|-----------3--------------------3----33333333--|
G|-2----1----2----------2----1----2--------------|
D|-2----2----0----------2----2----0--------------|
A|-0----2----0----------0----2----0--------------|
E|------0--------------------0-------------------|

e|-----------------------------|--|--------------------------|
B|---------------3-3--3-3-3--3-|--|--------------------------|
G|-2-2--2-1-1--1-2-2--2-2-2--2-|x2|-2--2--2------1--1--1-----|
D|-2-2--2-2-2--2-0-0--0-0-0--0-|--|-2--2--2------2--2--2-----|
A|-0-0--0-2-2--2-0-0--0-0-0--0-|--|-0--0--0------2--2--2-----|
E|--------0-0--0---------------|--|--------------0--0--0-----|
Tap to rate this tab
 
# A B C D E F G H I J K L M N O P Q R S T U V W X Y Z