Song name
# A B C D E F G H I J K L M N O P Q R S T U V W X Y Z

The Menzingers - Where Your Heartache Exists tab

-------------------------------------------------------------------------------
	   I KNOW WHERE YOUR HEARTACHE EXISTS - The Menzingers
-------------------------------------------------------------------------------

Tuning: Half-step Down

INTRO: (notes in parenthesis are an effect I think)
eb|-------------------(7-6)------------------(7-6)---------|
Bb|-------------------------(7-4)----------------(7-9)-----|
Gb|--------------------4-3--------------------4-3----(6/8)-|
Db|-------------------------4---------------------4-6------|
Ab|----------------------------6----------------------4/6--|
Eb|--------------------------------------------------------|
  |                                                        |    x2
eb|--------------------------------------------------------|
Bb|--------------------------------------------------------|
Gb|--------------------------------------------------------|
Db|---------------4---------------------------4------------|
Ab|-6-----4h6-4h6-6-6-----------6-----4h6-4h6-6-6----------|
Eb|-7-----7-7-7-7-7-4-----------7-----7-7-7-7-7-4----------|


VERSE:
eb|-----------------------------------------------------------------|
Bb|-----------------------------------------------------------------|
Gb|-----------------------------------------------------------------|
Db|---------------------------------9-9-9-9-9-9-9-9-----------------|
Ab|-9-9-9-9-9-9-9-9-6-6-6-6-6-6-6-6-7-7-7-7-7-7-7-7-9-9-9-9-9-9-9-9-|
Eb|-7-7-7-7-7-7-7-7-4-4-4-4-4-4-4-4-----------------7-7-7-7-7-7-7-7-|
    pm. . . . . . . . . . . . . . . . . . . . . . . . . . . . . . .

eb|-----------------------------------------------------------------|
Bb|-----------------------------------------------------------------|
Gb|-----------------------------------------------------------------|
Db|---------------------------------9-9-9-9-9-9-9-9-----------------|
Ab|-9-9-9-9-9-9-9-9-6-6-6-6-6-6-6-6-7-7-7-7-7-7-7-7-9-9-9-9-4-4-4-4-|
Eb|-7-7-7-7-7-7-7-7-4-4-4-4-4-4-4-4-----------------7-7-7-7-2-2-2-2-|
    pm. . . . . . . . . . . . . . . . . . . . . . . . . . . . . . .

eb|-----------------------------------------------------------------|
Bb|-----------------------------------------------------------------|
Gb|-----------------------------------------------------------------|
Db|---------------------------------9-9-9-9-9-9-9-9-----------------|
Ab|-9-9-9-9-9-9-9-9-6-6-6-6-6-6-6-6-7-7-7-7-7-7-7-7-9-9-9-9-9-9-9-9-|
Eb|-7-7-7-7-7-7-7-7-4-4-4-4-4-4-4-4-----------------7-7-7-7-7-7-7-7-|
    pm. . . . . . . . . . . . . . . . . . . . . . . . . . . . . . .

eb|-----------------------------------------------------------------|
Bb|-----------------------------------------------------------------|
Gb|-----------------------------------------------------------------|
Db|---------------------------------9-9-9-9-9-9-9-9-9-9-9-9-9-9-9-9-|
Ab|-9-9-9-9-9-9-9-9-6-6-6-6-6-6-6-6-7-7-7-7-7-7-7-7-7-7-7-7-7-7-7-7-|
Eb|-7-7-7-7-7-7-7-7-4-4-4-4-4-4-4-4---------------------------------|
    pm. . . . . . . . . . . . . . . . . . . . . . .


Repeat Intro and Verse


PRE-CHORUS:
eb|------------------------------------------------------------------|
Bb|------------------------------------------------------------------|
Gb|------------------------------------------------------------------|
Db|---------8-8-8-8---------11111111---------8-8-8-8---------9-9-9-9-|
Ab|-9-9-9-996-6-6-6-9-9-9-999-9-9-9--9-9-9-996-6-6-6-9-9-9-997-7-7-7-|
Eb|-7-7-7-77--------7-7-7-77---------7-7-7-77--------7-7-7-77--------|


CHORUS:
eb|---------------------------------|
Bb|---------------------------------|
Gb|---------11111111--------9-9-9-9-|    x4
Db|-9-9-9-9-111111116-6-6-6-9-9-9-9-|
Ab|-9-9-9-9-9-9-9-9-6-6-6-6-7-7-7-7-|
Eb|-7-7-7-7---------4-4-4-4---------|


eb|---------------------------------|
Bb|---------------------------------|
Gb|---------11----------------------|
Db|-9-------11------6---------------|
Ab|-9-------9-------6---------------|
Eb|-7---------------4---------------|



BRIDGE:
eb|-------------------------------------------------------------------|
Bb|-------------------------------------------------------------------|
Gb|-9-9-9-9-9-9-9-9---------------------------------------------------| 
Db|-9-9-9-9-9-9-9-9-4-4-4-4-4-4-4-4-9-9-9-9-8-8-8-8-6-6-6-6-6-6-6-6-6-|
Ab|-7-7-7-7-7-7-7-7-4-4-4-4-4-4-4-4-9-9-9-9-9-9-9-9-6-6-6-6-6-6-6-6-6-|
Eb|-----------------2-2-2-2-2-2-2-2-7-7-7-7-6-6-6-6-4-4-4-4-4-4-4-4-4-|

eb|-------------------------------------------------------------------|
Bb|-------------------------------------------------------------------|
Gb|-9-9-9-9-9-9-9-9-------------------------------------------9-9-9-9-|
Db|-9-9-9-9-9-9-9-9-4-4-4-4-4-4-4-4-9-9-9-9-8-8-8-8-6-6-6-6-6-9-9-9-9-|
Ab|-7-7-7-7-7-7-7-7-4-4-4-4-4-4-4-4-9-9-9-9-9-9-9-9-6-6-6-6-6-7-7-7-7-|
Eb|-----------------2-2-2-2-2-2-2-2-7-7-7-7-6-6-6-6-4-4-4-4-4---------|


GUITAR SOLO!:
eb|-----------------------------------------------------------------|
Bb|-----------------------------------------------------------------|
Gb|---------------------------------9-9-9-9-8-8-8-8---------11111111|
Db|-9-9-9-9-9-9-9-9-9-9-9-9-9-9-9-9-9-9-9-9-9-9-9-9-1111111111111111|
Ab|-9-9-9-9-9-9-9-9-9-9-9-9-9-9-9-9-7-7-7-7-6-6-6-6-111111119-9-9-9-|
Eb|-7-7-7-7-7-7-7-7-7-7-7-7-7-7-7-7-----------------9-9-9-9---------|
  |                                                                 |
eb|-----------------------------------------------------------------|
Bb|--------------------------------------------------/- - - - ------|
Gb|-------------------------------4-----6^--6-4-4-6-7-7-7-7-7-6-4---|
Db|---------------4-------6---4-------6-----------------------------|
Ab|-6---6p4-6p4-6-----6p4-------6-----------------------------------|
Eb|-----------------------------------------------------------------|
                                                         ^
                                            /bend all these up a half step/
                                              /and then keep them bent/

eb|-----------------------------------------------------------------|
Bb|-----------------------------------------------------------------|
Gb|---------------------------------9-9-9-9-8-8-8-8---------11111111|
Db|-9-9-9-9-9-9-9-9-9-9-9-9-9-9-9-9-9-9-9-9-9-9-9-9-1111111111111111|
Ab|-9-9-9-9-9-9-9-9-9-9-9-9-9-9-9-9-7-7-7-7-6-6-6-6-111111119-9-9-9-|
Eb|-7-7-7-7-7-7-7-7-7-7-7-7-7-7-7-7-----------------9-9-9-9---------|

eb|-----------------------------------------------------------------|
Bb|-----------------------------------------------------------------|
Gb|---------4~~---3~~-----------------------------------------------|
Db|-------------------6~~-------------------------------------------|
Ab|-----------------------6~~-------6h7-6/4-6h7-6/4-6h7-6/4/9-9-9-9-|
Eb|-----------------------------------------------------------------|


CHORUS:
eb|---------------------------------|
Bb|---------------------------------|
Gb|---------11111111--------9-9-9-9-|    x4
Db|-9-9-9-9-111111116-6-6-6-9-9-9-9-|
Ab|-9-9-9-9-9-9-9-9-6-6-6-6-7-7-7-7-|
Eb|-7-7-7-7---------4-4-4-4---------|


OUTRO:
eb|-----------------4---------------|
Bb|-----------------4---------------|
Gb|---------11------4---------------|
Db|-9-------11------6---------------|
Ab|-9-------9-------6---------------|
Eb|-7---------------4---------------|


************************************

| /   slide up
| \   slide down
| h   hammer-on
| p   pull-off
| ~   vibrato
| +   harmonic
| x   Mute note
| b   Bend
| pb  Pre-bend
| br  Bend release
| pbr Pre-bend release
| brb Bend release bend

************************************
Tap to rate this tab
 
# A B C D E F G H I J K L M N O P Q R S T U V W X Y Z