Song name
# A B C D E F G H I J K L M N O P Q R S T U V W X Y Z

The Menzingers - In Remission tab

-------------------------------------------------------------------------------
			     IN REMISSION - The Menzingers
-------------------------------------------------------------------------------

Tuning: Half-Step Down

INTRO:
eb|----------------------------------------------------------------|  |-----------------|
Bb|----------------------------------------------------------------|  |-----------------|
Gb|----------------------------------------------------------------|x6|-----------------|
Db|-------7-5-5-5------------------------7-5-5-5-------------------|  |-----------------|
Ab|-3-3-3-5-3-3-3-5-7-7-7-8-7-7-5--3-3-3-5-3-3-3-5-7-7-7-8-7-7-5-5-|  |-3-3-3-3-3-3-3-3-|
Eb|-1-1-1---------3-5-5-5-6-5-5-3--1-1-1---------3-5-5-5-6-5-5-3-3-|  |-1-1-1-1-1-1-1-1-|
                                                                      | pm. . . . . . . |
                                                                      |                 |
                                                                      |-----------------|
                                                                      |-----------------|
                                                                      |-----0---0-2-0---|
                                                                      |---3---3-------3-|
                                                                      |-----------------|
                                                                      |-----------------|




VERSE:
eb|---------------------------------|--|---------------------------------|
Bb|---------------------------------|--|---------------------------------|
Gb|-----0-------0-------0-------0---|x3|-----0-------0-------0-----0---0-|
Db|---3---3---3---3---3---3---3---3-|--|---3---3---3---3---3-------------|
Ab|---------0-------1-------3-------|--|---------3-------0-----1-0-------|
Eb|-1-------------------------------|--|-1---------------------------3---|

eb|----------------------------------------------------------------|
Bb|----------------------------------------------------------------|
Gb|----------------------------------------------------------------|
Db|-------7-5-5-5------------------------7-5-5-5-------------------|  
Ab|-3-3-3-5-3-3-3-5-7-7-7-8-7-7-5--3-3-3-5-3-3-3-5-7-7-7-8-7-7-5-5-| 
Eb|-1-1-1---------3-5-5-5-6-5-5-3--1-1-1---------3-5-5-5-6-5-5-3-3-| 


eb|---------------------------------|--|---------------------------------|
Bb|---------------------------------|--|---------------------------------|
Gb|-----0-------0-------0-------0---|x3|-----0-------0-------0-----------|
Db|---3---3---3---3---3---3---3---3-|--|---3---3---3---3---3-------------|
Ab|---------0-------1-------3-------|--|---------3-------0-----8-7---5---|
Eb|-1-------------------------------|--|-1---------------------6-5---3---|

      (comes in 3rd time)
eb|---------------------------------|-------------------------------|
Bb|-------6---5---------------------|---------6--5------------------|
Gb|---5-----------7---5---------5---|-5--------------7--------------|
Db|-7---------------------7---7-----|-------------------------------|
Ab|---------------------------------|-------------------------------|
Eb|---------------------------------|-------------------------------|



eb|----------------------------------------------------------------|
Bb|----------------------------------------------------------------|
Gb|----------------------------------------------------------------|
Db|-------7-5-5-5------------------------7-5-5-5-------------------|  
Ab|-3-3-3-5-3-3-3-5-7-7-7-8-7-7-5--3-3-3-5-3-3-3-5-7-7-7-8-10101010| 
Eb|-1-1-1---------3-5-5-5-6-5-5-3--1-1-1---------3-5-5-5-6-8-8-8-8-| 



BRIDGE:
eb|-----------------------------------------------------------------|
Bb|-----------------------------------------------------------------|
Gb|---------------------------------1010101010101010----------------| x2
Db|-8-8-8-8-8-8-8-8-8-8-8-8-8-8-8-8-10101010101010101212121212121212|
Ab|-8-8-8-8-8-8-8-8-8-8-8-8-8-8-8-8-8-8-8-8-8-8-8-8-1212121212121212|
Eb|-6-6-6-6-6-6-6-6-6-6-6-6-6-6-6-6-----------------1010101010101010|

  "and then we drove back drunk..."
eb|---------------------------------------------------|
Bb|---------------------------------------------------|
Gb|---------------------------------------------------|
Db|-8-------------------------------3-----------------|
Ab|-8---------------8-8-8-8-8-8-8-8-3-----------------|
Eb|-6---------------6-6-6-6-6-6-6-6-1-----------------|
                    pm. . . . . . .



VERSE:
eb|---------------------------------|
Bb|---------------------------------|
Gb|-----0-------0-------0-------0---|x4
Db|---3---3---3---3---3---3---3---3-|
Ab|---------0-------1-------3-------|
Eb|-1-------------------------------|
     
      (comes in 3rd time)
eb|---------------------------------|-------------------------------|
Bb|-------6---5---------------------|---------6--5------------------|
Gb|---5-----------7---5---------5---|-5--------------7--------------|
Db|-7---------------------7---7-----|-------------------------------|
Ab|---------------------------------|-------------------------------|
Eb|---------------------------------|-------------------------------|


HEAVY VERSE:
eb|----------------------------------|--|--------------------------------|
Bb|----------------------------------|--|--------------------------------|
Gb|----------------------------------|x3|-------7-5-5-5------------------|
Db|-3-3-3-3-7-7-7-7-8-8-8-8-10101010-|--|-3-3-3-7-5-5-5-5-7-7-7-8-7-7-5--|
Ab|-3-3-3-3-7-7-7-7-8-8-8-8-10101010-|--|-3-3-3-5-3-3-3-5-7-7-7-8-7-7-5--|
Eb|-1-1-1-1-5-5-5-5-6-6-6-6-8-8-8-8--|--|-1-1-1---------3-5-5-5-6-5-5-3--|


CHORUS:
eb|---------------------------------|  |-------------|
Bb|---------------------------------|  |-------------|
Gb|---------------------------------|x4|-------------|
Db|-3-3-3-3-8-8-8-8-101010108-8-7-5-|  |-3-3---------|
Ab|-3-3-3-3-8-8-8-8-101010108-8-7-5-|  |-3-3---------|
Eb|-1-1-1-1-6-6-6-6-8-8-8-8-6-6-5-3-|  |-1-1---------|


BREAKDOWN: (strum lightly)
eb|---------------------------------|
Bb|---------------------------------|
Gb|---------------------------------|
Db|-7---7---7---7---7---7---7---7---|
Ab|-8-8-8-8-8-8-8-8-8-8-8-8-8-8-8-8-|
Eb|---------------------------------|
   
(follow song for 2nd guitar; hit the F5 for a few measures, then starts strumming it constantly)
eb|-----------------------------------------------------------------|---------|
Bb|-----------------------------------------------------------------|---------|
Gb|-----------------------------------------------------------------|---------|
Db|-3-------------------------------3-3-3-3-3-3-3-3-3-3-3-3-3-3-3-3-|-3-3-----|
Ab|-3-------------------------------3-3-3-3-3-3-3-3-3-3-3-3-3-3-3-3-|-3-3-----|
Eb|-1-------------------------------1-1-1-1-1-1-1-1-1-1-1-1-1-1-1-1-|-1-1-----|

eb|-----------------------------------------------------------------|---------|
Bb|-----------------------------------------------------------------|---------|
Gb|-101010109-9-9-9-7-7-7-7-5-5-5-5-1010101012121212141414149-9-9-9-|-1010----|
Db|-x-x-x-x-x-x-x-x-x-x-x-x-x-x-x-x-x-x-x-x-x-x-x-x-x-x-x-x-x-x-x-x-|-x-x-----|
Ab|-8-8-8-8-7-7-7-7-5-5-5-5-3-3-3-3-8-8-8-8-10101010121212127-7-7-7-|-8-8-----|
Eb|-----------------------------------------------------------------|---------|


CHORUS:
eb|---------------------------------|  |-------------|
Bb|---------------------------------|  |-------------|
Gb|---------------------------------|x8|-------------|
Db|-3-3-3-3-8-8-8-8-101010108-8-7-5-|  |-3-3---------|
Ab|-3-3-3-3-8-8-8-8-101010108-8-7-5-|  |-3-3---------|
Eb|-1-1-1-1-6-6-6-6-8-8-8-8-6-6-5-3-|  |-1-1---------|





************************************

| /   slide up
| \   slide down
| h   hammer-on
| p   pull-off
| ~   vibrato
| +   harmonic
| x   Mute note
| b   Bend
| pb  Pre-bend
| br  Bend release
| pbr Pre-bend release
| brb Bend release bend

************************************
Tap to rate this tab
# A B C D E F G H I J K L M N O P Q R S T U V W X Y Z