Song name
# A B C D E F G H I J K L M N O P Q R S T U V W X Y Z

The Menzingers - Nothing Feels Good Anymore tab

-------------------------------------------------------------------------------
                             NOTHING FEELS GOOD ANYMORE - The Menzingers
-------------------------------------------------------------------------------

Tuning: Half-Step Down

This might be in a drop tuning (drop C#), but it seems easier to tab it out in standard 
half-step down.

INTRO/VERSE: x3
eb|------------------------------|--|-----------------------------|------------------------------|
Bb|------------------------------|--|-----------------------------|------------------------------|
Gb|------------------------------|x2|-----------------------------|------------------------------|
Db|----0------0-------0------0---|--|----0------0------0------0---|----0------0-------0------0---|
Ab|-5---------------5---0------0-|--|-5-------------------------0-|-5---------------5---0------0-|
Eb|------0-3----0-7-------3------|--|------0-7----0-5----0-3------|------0-3----0-7-------3------|


PRE-CHORUS:
eb|-----------------------------------------------------------------|--|--------|
Bb|-----------------------------------------------------------------|--|--------|
Gb|-----------------------------------------------------------------|x4|--------|
Db|-----0-------0-------0-------0-------0-------0-------0-------0---|--|--------|
Ab|---9---9---9---9---9---9---9---9---5---5---5---5---7---7---7---7-|--|-5------|
Eb|-7-------7-------7-------7-------3-------3-------5-------5-------|--|-3------|


CHORUS: x4
eb|----------------------------------|
Bb|----------------------------------|
Gb|-----------------7---7-7----------|
Db|-9---9-9---5-5---7---7-7-4-4-4-4--|
Ab|-9---9-9---5-5---5---5-5-4-4-4-4--|
Eb|-7---7-7---3-3-----------2-2-2-2--|
  |                                  |
eb|----------------------------------|
Bb|-12--12-10-10---------------------|
Gb|----------------9/11-11-11-11-9-7-|
Db|----------------------------------|
Ab|----------------------------------|
Eb|----------------------------------|


POST-CHORUS RIFF: x4
eb|-----------------|
Bb|-----------------|
Gb|-----------------|
Db|-9---9-0-2-4-4-7-|
Ab|-9---9-0-2-4-4-7-|
Eb|-7---7-0-0-2-2-5-|


VERSE: x4
eb|-------------------------------------------------------------------|
Bb|-------------------------------------------------------------------|
Gb|-------------------------------------------------------------------|
Db|-7-7-7-7-7-7-7-7---------------------------------------------------|
Ab|-5-5-5-5-5-5-5-5-4-4-4-4-8-8-8-8-9-9-9-9-9-9-9-9-5-5-5-5-5-5-5-5-5-|
Eb|-----------------2-2-2-2-6-6-6-6-7-7-7-7-7-7-7-7-3-3-3-3-3-3-3-3-3-|
    pm. . . . . . . . . . . . . . . . . . . . . . . . . . . . . . . .


PRE-CHORUS: x2
eb|-----------------------------------------------------------------|
Bb|-----------------------------------------------------------------|
Gb|-----------------------------------------------------------------|
Db|-----0-------0-------0-------0-------0-------0-------0-------0---|
Ab|---9---9---9---9---9---9---9---9---5---5---5---5---7---7---7---7-|
Eb|-7-------7-------7-------7-------3-------3-------5-------5-------|


CHORUS: x3
eb|----------------------------------|
Bb|----------------------------------|
Gb|-----------------7---7-7----------|
Db|-9---9-9---5-5---7---7-7-4-4-4-4--|
Ab|-9---9-9---5-5---5---5-5-4-4-4-4--|
Eb|-7---7-7---3-3-----------2-2-2-2--|
  |                                  |
eb|----------------------------------|
Bb|-12--12-10-10---------------------|
Gb|----------------9/11-11-11-11-9-7-|
Db|----------------------------------|
Ab|----------------------------------|
Eb|----------------------------------|

eb|---------------------------------|
Bb|---------------------------------|
Gb|---------------------------------|
Db|-9---9-9---5-5---7-7-7-7-7-7-7-7-|
Ab|-9---9-9---5-5---7-7-7-7-7-7-7-7-|
Eb|-7---7-7---3-3---5-5-5-5-5-5-5-5-|


BRIDGE: x4
eb|-------------------------------------------------------------------|
Bb|-------------------------------------------------------------------|
Gb|-7-7-7-7-7-7-7-7---------------------------------------------------|
Db|-7-7-7-7-7-7-7-7-4-4-4-4-8-8-8-8-9-9-9-9-9-9-9-9-5-5-5-5-5-5-5-5-5-|
Ab|-5-5-5-5-5-5-5-5-4-4-4-4-8-8-8-8-9-9-9-9-9-9-9-9-5-5-5-5-5-5-5-5-5-|
Eb|-----------------2-2-2-2-6-6-6-6-7-7-7-7-7-7-7-7-3-3-3-3-3-3-3-3-3-|


CHORUS: x8
eb|----------------------------------|
Bb|----------------------------------|
Gb|-----------------7---7-7----------|
Db|-9---9-9---5-5---7---7-7-4-4-4-4--|
Ab|-9---9-9---5-5---5---5-5-4-4-4-4--|
Eb|-7---7-7---3-3-----------2-2-2-2--|
  |                                  |
eb|----------------------------------|
Bb|-12--12-10-10---------------------|
Gb|----------------9/11-11-11-11-9-7-|
Db|----------------------------------|
Ab|----------------------------------|
Eb|----------------------------------|


POST-CHORUS RIFF: x4
eb|-----------------|
Bb|-----------------|
Gb|-----------------|
Db|-9---9-0-2-4-4-7-|
Ab|-9---9-0-2-4-4-7-|
Eb|-7---7-0-0-2-2-5-|


End on this, softly:
eb|-2----------------------------------------------------------------------------|
Bb|-3----------------------------------------------------------------------------|
Gb|-4----------------------------------------------------------------------------|
Db|-4----------------------------------------------------------------------------|
Ab|-2----------------------------------------------------------------------------|
Eb|------------------------------------------------------------------------------|

************************************

| /   slide up
| \   slide down
| h   hammer-on
| p   pull-off
| ~   vibrato
| +   harmonic
| x   Mute note
| b   Bend
| pb  Pre-bend
| br  Bend release
| pbr Pre-bend release
| brb Bend release bend

************************************
Tap to rate this tab
 
# A B C D E F G H I J K L M N O P Q R S T U V W X Y Z