Song name
# A B C D E F G H I J K L M N O P Q R S T U V W X Y Z

The Menzingers - Transient Love tab

-------------------------------------------------------------------------------
                             TRANSIENT LOVE - The Menzingers
-------------------------------------------------------------------------------

Tuning: Half-Step Down

Bass Intro: 
Gb|------------------------------------------------------------------|
Db|------------------------------------------------------------------|
Ab|------------------------------------------------------------------|
Eb|-7777777777777777333333333333333200000000000000023333333366666666-|


GUITAR LEAD: x2
eb|-------------------------------------------------------------------------------------------------|
Bb|-12---10--------------------12---10--------------------------------------------------------------|
Gb|-----------7-------7-9/11---------------7---------7-7/6-4--2/4--4-------7/6-4/2-2/4-------3---3--|
Db|-------------------------------------------------------------------------------------------------|
Ab|-------------------------------------------------------------------------------------------------|
Eb|-------------------------------------------------------------------------------------------------|


VERSE: x2
eb|------------------------------------------------------------------|
Bb|------------------------------------------------------------------|
Gb|------------------------------------------------------------------|
Db|-44444444444444444444444444444444----------------4444444033333333-|
Ab|-5555555555555555222222222222222255555555555555555555555011111111-|
Eb|---------------------------------3333333333333333-----------------|

CHORUS:
eb|------------------------------------------------------------------|
Bb|------------------------------------------------------------------|
Gb|------------------------------------------------------------------|
Db|-4444444444444444----------------4444444444444444-----------------|
Ab|-2222222222222222555555555555555522222222222222225555555555555555-|
Eb|-----------------3333333333333333----------------3333333333333333-|
  |                                                                  |
eb|------------------------------------------------------------------|
Bb|-----------------7-7-7/5-3---3-3-3--------------7-7-7/5-3---3-3-3-|
Gb|------------------------------------------------------------------|
Db|------------------------------------------------------------------|
Ab|------------------------------------------------------------------|
Eb|------------------------------------------------------------------|


GUITAR LEAD:
eb|------------------------------------------------------------------|
Bb|-12--10------------12--10-----------------------------------------|
Gb|--------7---7-9/11-------7--7-7/6-4--2/4-4--7/6-4/2-2/4--3---3----|
Db|------------------------------------------------------------------|
Ab|------------------------------------------------------------------|
Eb|------------------------------------------------------------------|
  |                                                                  |
eb|------------------------------------------------------------------|
Bb|------------------------------------------------------------------|
Gb|------------------------------------------------------------------|
Db|------------------------------------------------------------------|
Ab|-9999999999999999555555555555555522222222222222225555555588888888-|
Eb|-7777777777777777333333333333333300000000000000003333333366666666-|



VERSE: x2
eb|------------------------------------------------------------------|
Bb|------------------------------------------------------------------|
Gb|------------------------------------------------------------------|
Db|-44444444444444444444444444444444----------------4444444033333333-|
Ab|-5555555555555555222222222222222255555555555555555555555011111111-|
Eb|---------------------------------3333333333333333-----------------|


BRIDGE: ("what if I spent the next few years...")
eb|------------------------------------------------------------------|
Bb|------------------------------------------------------------------|
Gb|------------------------------------------------------------------|
Db|-4444444444444444--------------------------------4444444433333333-|
Ab|-2222222222222222555555555555555522222222777777775555555511111111-|
Eb|-----------------33333333333333330000000055555555-----------------|
  |                                                                  |
eb|----------------------------------7---7---10---10-----------------|
Bb|-----------------------------------8---8----8----8----------------|
Gb|---6---6---6---6---7---7---7---7-7---7---9----9------7--7---7---7-|
Db|-9---9---9---9---9---9---9---9---------------------7---7--8----8--|
Ab|------------------------------------------------------------------|
Eb|------------------------------------------------------------------|


CHORUS: x2
eb|------------------------------------------------------------------|
Bb|------------------------------------------------------------------|
Gb|------------------------------------------------------------------|
Db|-4444444444444444----------------4444444444444444-----------------|
Ab|-2222222222222222555555555555555522222222222222225555555555555555-|
Eb|-----------------3333333333333333----------------3333333333333333-|
  |                                                                  |
eb|------------------------------------------------------------------|
Bb|-----------------7-7-7/5-3---3-3-3--------------7-7-7/5-3---3-3-3-|
Gb|------------------------------------------------------------------|
Db|------------------------------------------------------------------|
Ab|------------------------------------------------------------------|
Eb|------------------------------------------------------------------|


GUITAR LEAD: x2
eb|-----------------------------------------------------5------5-----|
Bb|-12--10------------12--10----------12--10---7/5--7/5----7/5---7/5-|
Gb|--------7---7-9/11-------7--7-7/6-4------7-----7----7------7-----7|
Db|------------------------------------------------------------------|
Ab|------------------------------------------------------------------|
Eb|------------------------------------------------------------------|
  |                                                                  |
eb|------------------------------------------------------------------|
Bb|------------------------------------------------------------------|
Gb|------------------------------------------------------------------|
Db|------------------------------------------------------------------|
Ab|-9999999999999999555555555555555522222222222222225555555588888888-|
Eb|-7777777777777777333333333333333300000000000000003333333366666666-|


OUTRO:
eb|------------------------------------------------------------------|
Bb|------------------------------------------------------------------|
Gb|------------------------------------------------------------------|
Db|-44444444444444404444444444444440------------------------33333333-|
Ab|-5555555555555550222222222222222055555555555555502222222211111111-|
Eb|---------------------------------333333333333333000000000---------|


************************************

| /   slide up
| \   slide down
| h   hammer-on
| p   pull-off
| ~   vibrato
| +   harmonic
| x   Mute note
| b   Bend
| pb  Pre-bend
| br  Bend release
| pbr Pre-bend release
| brb Bend release bend

************************************
Tap to rate this tab
# A B C D E F G H I J K L M N O P Q R S T U V W X Y Z