Song name
# A B C D E F G H I J K L M N O P Q R S T U V W X Y Z

The Meteors - Little Red Riding Hood tab

THE METEORS
"Little Red Riding Hood"
Tabbed by: Dave
http://www.kingsofpsychobilly.com/welcome.htm

A few mistakes I'm sure. But it's hard to hear the solo note for not ya know. Damn that 
reverb. :P


E------0----------0------------|
B------0----------0------------|
G-0----0-----0----0----0-------|
D---4--2-------4--2------4-----|
A------2----------2------------|
E------0----------0------------|

 Em          G            A
E-----0-0----------3-3-3---------------------------|
B-----0-0----------3-3-3----2---2---2---2---2---2--|
G-----0-0------0---0-0-0----2---2---2---2---2---2--|
D---2----------0------------2---2---2---2---2---2--|
A-2--------------2--------0-------0-------0-----0--|
E-0----------3----------------3-------3-------3----|

  G         B7          Em      B7
E-----3-3-3-------2-2-2----0-0------------------------------|
B-----3-3-3-------0-0-0----0-0------------------------------|
G-----0-0-0-----2-2-2-2----0-0------------------------------|
D---0---------1-----------2---------------------------------|
A-2---------2-----------2------2-2-2--0-0-0-----------------|
E-3---------------------0--------------------3-3-3--2-2-2---|


VERSE:
Em         G
Little Red Ridin' Hood
A
I don't think that a big girl should go
G
Walkin' in
    B7                Em   B7
The streets or woods alone

CHORUS:
G
What big eyes you have
Em
The kinda eyes that'll drive wolves mad
A
So to see y' don't get chased
          D
I think I ought to walk with you to be safe
G
What full lips you have
Em
You'll sure love some wolf bad
A
'Fore we get to grandma's place
    D
You ought to see things just my way

POST-CHORUS:
Em                G
I'm gonna keep my sheep suit on
A
Til I'm sho' that you been shown
     G
That I can be trusted
   B7             Em     B7
To walk with you alone

LICK (played right near the end of the last chorus)
E-------------10-13-12-10---------------------------------------|
B-------10-12--------------13-12-10-------10-12-10-12b----------|
G-10h11-----------------------------12----10-12-10-12b----------|
D--------------------------------------12-----------------------|
A---------------------------------------------------------------|
E---------------------------------------------------------------|


SOLO:

E---------------|-----------------------------------|-------------------------------|
B---------------|-----------------------------------|-------------------------------|
G---------------|-----------------------------------|-------------------------------|
D---------------|-----------------------------------|-------------------------------|
A-2-2-2-0-------|---0-2---0-0-----0-0-----3p0---0-0-|-------0-1-2--2-2-0----------0-|
E---------3-0-3-|-3-----3-----3-4-----3-4-----3-----|-3-3-3--------------3-2-0--0---|

E-/7-7-7--/9-9-9--/10-10-10--/11-11-11--0-0-0-0-0-0-0-0-0-0-0-0---------------------|
B-/7-7-7--/9-9-9--/10-10-10--/11-11-11--5-5-5-5-5-5-5-5-5-5-5-5--3----3-3-----------|
G------------------------------------------------------------------5b-----5br-3h4---|
D-----------------------------------------------------------------------------------|
A-----------------------------------------------------------------------------------|
E-----------------------------------------------------------------------------------|

E--------5---------------------5----/3-3-3-3-3-3-3-3-3-3-3-3--------7----------------0----2---0----|
B------5---8-7-5---------------5----/3-3-3-3-3-3-3-3-3-3-3-3------7---10-7-----------0----0---0----|
G----6-----------7-5---5p4h5-----6----------------------------7/8----------9--7h8----0----2---0----|
D-/7-----------------7-------7----------------------------------------------------7--2----1---2----|
A------------------------------------------------------------------------------------2----2---2----|
E------------------------------------------------------------------------------------0--------0----|
Tap to rate this tab
 
# A B C D E F G H I J K L M N O P Q R S T U V W X Y Z