Song name
# A B C D E F G H I J K L M N O P Q R S T U V W X Y Z

The Meteors - Doing The Lords Work tab

Tuning: Standard

| /  slide up
| b  bend note
| v  bend note down
| ~  vibrato


e|-----------------------------------------------------------------------|
B|-----------------------------------------------------------------------|
G|-----------------------------------------------------------------------|
D|-------------------------------------------------------------33-22-----|
A|-----------22-3-33-22-00-3333-2222-------------------22-3333-----------|
E|--0-5-5555-------------------------5555-00-33-555555-------------------|

e|--------------------|
B|--------------------|
G|--------------------|
D|--------------------|
A|--222222222222------|
E|--------------------|

e|-------------------------------------------------------------------|
B|-------------------------------------------------------------------|
G|-------------------------------------------------------------------|
D|-------------------------------------------------------------------|
A|-----------22-3333-22-00-3333-2222---------------------------------|
E|--0-555555-------------------------5555-00-33-55555555-4-44-2-4----|

e|----------------------|
B|----------------------|
G|----------------------|
D|----------------------|
A|----------------------|
E|--5555555555555555----|

e|-----------------------------------------------------------------------|
B|-----------------------------------------------------------------------|
G|-----------------------------------------------------------------------|
D|-------------------------------------------------------------33-22-----|
A|-----------22-3-33-22-00-3333-2222-------------------22-3333-----------|
E|--0-5-5555-------------------------5555-00-33-555555-------------------|

e|--------------------|
B|--------------------|
G|--------------------|
D|--------------------|
A|--222222222222------|
E|--------------------|

e|-------------------------------------------------------------------|
B|-------------------------------------------------------------------|
G|-------------------------------------------------------------------|
D|-------------------------------------------------------------------|
A|-----------22-3333-22-00-3333-2222---------------------------------|
E|--0-555555-------------------------5555-00-33-55555555-4-44-2-4----|

e|----------------------|
B|----------------------|
G|----------------------|
D|----------------------|
A|----------------------|
E|--5555555555555555----|

e|------------------------------------------------------|
B|------------------------------------------------------|
G|------------------------------------------------------|
D|--------0--5-3-0-2------------------0--5-3-0-2v-------|
A|-----2---------------3--0v-------2--------------------|
E|--3---------------------------3-----------------------|

e|-----------------------------------------------------|
B|-----------------------------------------------------|
G|-----------------------------------------------------|
D|--------0--5-3-0-2-----------------------------------|
A|-----2--------------3--0v----------------------------|
E|--3---------------------------5-5-5-4--2-4-5v--------|

e|-----------------------------------------------------------------------|
B|-----------------------------------------------------------------------|
G|-----------------------------------------------------------------------|
D|-------------------------------------------------------------33-22-----|
A|-----------22-3-33-22-00-3333-2222-------------------22-3333-----------|
E|--0-5-5555-------------------------5555-00-33-555555-------------------|

e|--------------------|
B|--------------------|
G|--------------------|
D|--------------------|
A|--222222222222------|
E|--------------------|

e|-------------------------------------------------------------------|
B|-------------------------------------------------------------------|
G|-------------------------------------------------------------------|
D|-------------------------------------------------------------------|
A|-----------22-3333-22-00-3333-2222---------------------------------|
E|--0-555555-------------------------5555-00-33-55555555-4-44-2-4----|

e|----------------------|
B|----------------------|
G|----------------------|
D|----------------------|
A|----------------------|
E|--5555555555555555----|

    
e|--1v---1/5v-----1v---1/5v-----1v---1/5v-----1v---1/12----12~--------|
B|--1v---1/5v-----1v---1/5v-----1v---1/5v-----1v---1/12----11~--------|
G|--2----2/5------2----2/5------2----2/5------2----2/13---------------|
D|--3----3/7------3----3/7------3----3/7------3-----------------------|
A|--3----3/7------3----3/7------3----3/7------3-----------------------|
E|--1----1/5------1----1/5------1----1/5------1-----------------------|


e|-----------------------------------------------------------------------|
B|-----------------------------------------------------------------------|
G|-----------------------------------------------------------------------|
D|-------------------------------------------------------------33-22-----|
A|-----------22-3-33-22-00-3333-2222-------------------22-3333-----------|
E|--0-5-5555-------------------------5555-00-33-555555-------------------|

e|--------------------|
B|--------------------|
G|--------------------|
D|--------------------|
A|--222222222222------|
E|--------------------|

e|-------------------------------------------------------------------|
B|-------------------------------------------------------------------|
G|-------------------------------------------------------------------|
D|-------------------------------------------------------------------|
A|-----------22-3333-22-00-3333-2222---------------------------------|
E|--0-555555-------------------------5555-00-33-55555555-4-44-2-4----|

e|----------------------|
B|----------------------|
G|----------------------|
D|----------------------|
A|----------------------|
E|--5555555555555555----|

e|--5-5--55--3-3--33--5-5--55--3-3--33-----|
B|--5-5--55--3-3--33--5-5--55--3-3--33-----|
G|--5-5--55--4-4--44--5-5--55--4-4--44-----|
D|--7-7--77--5-5--55--7-7--77--5-5--55-----|
A|--7-7--77--5-5--55--7-7--77--5-5--55-----|
E|--5-5--55--3-3--33--5-5--55--3-3--33-----|

e|--5-5--55--3-3--33--5-5--55--3-3--33-----|
B|--5-5--55--3-3--33--5-5--55--3-3--33-----|
G|--5-5--55--4-4--44--5-5--55--4-4--44-----|
D|--7-7--77--5-5--55--7-7--77--5-5--55-----|
A|--7-7--77--5-5--55--7-7--77--5-5--55-----|
E|--5-5--55--3-3--33--5-5--55--3-3--33-----|

e|------------------------------------------------------|
B|------------------------------------------------------|
G|---------------------------------------------0v-------|
D|--------0--5-3-0-2------------------0--5-3-0-2v-------|
A|-----2---------------3--0v-------2--------------------|
E|--3---------------------------3-----------------------|

e|-----------------------------------------------------|
B|-----------------------------------------------------|
G|-----------------------------------------------------|
D|--------0--5-3-0-2-----------------------------------|
A|-----2--------------3--0v----------------------------|
E|--3---------------------------5-5-5-4--2-4-5v--------|


e|-----------------------------------------------------|
B|----------------------------1--0---------------------|
G|-------------2-4-2--0--2----------2--0-2-4-2---------|
D|--------0--5-----------------------------------------|
A|-----2-----------------------------------------------|
E|--3--------------------------------------------------|

e|------------------------------------0-----0-----0~------|
B|--1--0--1--0-1-3-3/5--3--1--0-------------------1~------|
G|------------------------------2-0-2---2-1-----1-2~------|
D|--------------------------------------------4-----------|
A|--------------------------------------------------------|
E|--------------------------------------------------------|

e|---------------------------------------------------------------------|
B|---------------------------------------------------------------------|
G|-----------------------------------------------------------33-22-----|
D|--0-0000-22-3-33-22-00-3333-2222-0000-------000000-22-3333-----------|
A|--------------------------------------00-33--------------------------|
E|---------------------------------------------------------------------|

e|------------------|
B|------------------|
G|------------------|
D|--222222222222----|
A|------------------|
E|------------------|

e|---------------------------------------------------------------------|
B|---------------------------------------------------------------------|
G|---------------------------------------------------------------------|
D|--0-0000-22-3-33-22-00-3333-2222-0000-------00000000-----------------|
A|--------------------------------------00-33----------4444-22-44------|
E|---------------------------------------------------------------------|

e|------------------|
B|------------------|
G|------------------|
D|--000000000000----|
A|------------------|
E|------------------|

e|----------------------------------------------------|
B|--------------------------------------------1v------|
G|--------0--5-3-0-2-----------------0--5-3-0-2v------|
D|-----2--------------3--0v-------2-------------------|
A|--3--------------------------3----------------------|
E|----------------------------------------------------|

e|---------------------------------------------------------|
B|---------------------------------------------------------|
G|--------0--5-3-0-2-----2v--------------------------------|
D|-----2--------------3--0v----0--0--0---------------------|
A|--3-----------------------------------4-4-2-2-4--0-------|
E|---------------------------------------------------------|

e|--5-5--55--3-3--33--5-5--55--3-3--33-----|
B|--5-5--55--3-3--33--5-5--55--3-3--33-----|
G|--5-5--55--4-4--44--5-5--55--4-4--44-----|
D|--7-7--77--5-5--55--7-7--77--5-5--55-----|
A|--7-7--77--5-5--55--7-7--77--5-5--55-----|
E|--5-5--55--3-3--33--5-5--55--3-3--33-----|

e|--5-5--55--3-3--33--5-5--55--3-3--33-----|
B|--5-5--55--3-3--33--5-5--55--3-3--33-----|
G|--5-5--55--4-4--44--5-5--55--4-4--44-----|
D|--7-7--77--5-5--55--7-7--77--5-5--55-----|
A|--7-7--77--5-5--55--7-7--77--5-5--55-----|
E|--5-5--55--3-3--33--5-5--55--3-3--33-----|

e|-----------------------------------------------------------------------|
B|-----------------------------------------------------------------------|
G|-----------------------------------------------------------------------|
D|-------------------------------------------------------------33-22-----|
A|-----------22-3-33-22-00-3333-2222-------------------22-3333-----------|
E|--0-5-5555-------------------------5555-00-33-555555-------------------|

e|--------------------|
B|--------------------|
G|--------------------|
D|--------------------|
A|--222222222222------|
E|--------------------|

e|-------------------------------------------------------------------|
B|-------------------------------------------------------------------|
G|-------------------------------------------------------------------|
D|-------------------------------------------------------------------|
A|-----------22-3333-22-00-3333-2222---------------------------------|
E|--0-555555-------------------------5555-00-33-55555555-4-44-2-4----|

e|----------------------|
B|----------------------|
G|----------------------|
D|----------------------|
A|----------------------|
E|--5555555555555555----|

e|--1v---1/5v-----1v---1/5v-----1v---1/5v-----1v---1/12----12~--------|
B|--1v---1/5v-----1v---1/5v-----1v---1/5v-----1v---1/12----11~--------|
G|--2----2/5------2----2/5------2----2/5------2----2/13---------------|
D|--3----3/7------3----3/7------3----3/7------3-----------------------|
A|--3----3/7------3----3/7------3----3/7------3-----------------------|
E|--1----1/5------1----1/5------1----1/5------1-----------------------|

e|-----------------------------------------------------------------------|
B|-----------------------------------------------------------------------|
G|-----------------------------------------------------------------------|
D|-------------------------------------------------------------33-22-----|
A|-----------22-3-33-22-00-3333-2222-------------------22-3333-----------|
E|--0-5-5555-------------------------5555-00-33-555555-------------------|

e|--------------------|
B|--------------------|
G|--------------------|
D|--------------------|
A|--222222222222------|
E|--------------------|

e|-------------------------------------------------------------------|
B|-------------------------------------------------------------------|
G|-------------------------------------------------------------------|
D|-------------------------------------------------------------------|
A|-----------22-3333-22-00-3333-2222---------------------------------|
E|--0-555555-------------------------5555-00-33-55555555-4-44-2-4----|

e|----------------------|
B|----------------------|
G|----------------------|
D|----------------------|
A|----------------------|
E|--5555555555555555----|

e|---------------------------------------0----0---0---0--------|
B|----1-3-3b-3b-3b-3b-3-1---------1-3-3b----4---4---4---1-1----|
G|--2---------------------2-0-2-2------------------------------|
D|-------------------------------------------------------------|
A|-------------------------------------------------------------|
E|-------------------------------------------------------------|

e|-------------------------------------------------------------|
B|----1-3-3b-3b-3b-3b-3-3b3b-3-1-----1-3-3b-3b-3b-3b-3-1-------|
G|--2------------------------------2---------------------2-0-2-|
D|-------------------------------------------------------------|
A|-------------------------------------------------------------|
E|-------------------------------------------------------------|
Tap to rate this tab
# A B C D E F G H I J K L M N O P Q R S T U V W X Y Z