Song name
# A B C D E F G H I J K L M N O P Q R S T U V W X Y Z

The Meteors - Wreking Crew tab

INTRO: 
|-5-5-----------------|
|-5--8-7-6-5----------|
|------------8-7--5---|
|---------------------|
|---------------------|
|---------------------|

SOLO ONE 
|---5---------------------------------------------------5--8-8--8-8-8---8-5-5---8-7-5---5---5|
|---5--8-7-6-5--------------5-------------------------5-5--7-7--7-7-7-----------------8---8--|
|--------------8-7-5-7-5--7---7-5-----------------5-6----------------------------------------|
|---------------------------------7--s7-7-s7-------------------------------------------------|
|--------------------------------------------------------------------------------------------|
|--------------------------------------------------------------------------------------------|


|5-5-5---7-5-8-5---7-5-8-5---7-5-8-5---7-5-8-5----8-7-5--------------------------------------|
|-------------------------------------------------------5-4----------------------------------|
|-----------------------------------------------------------7-5----7-5-----------------------|
|----------------------------------------------------------------7-----7---------------------|
|--------------------------------------------------------------------------------------------|
|--------------------------------------------------------------------------------------------|


SOLO 2
|-5-5--5-5---------5---5----5----5---5----8-5--5---8-5--5---8-5--5---875---5-----------------|
|-5-5--5-5-------8^--8^----8^--8^--7---------7--------7--------7---------8-5-----------------|
|---------------------------------------------------------------------------------------------|
|---------------------------------------------------------------------------------------------|
|---------------------------------------------------------------------------------------------|
|---------------------------------------------------------------------------------------------|


|-5-5-5--8-8--5-8-8--5-8-8--5-5--8-7-5---5---5---5-5-5-----------------------------------------|
|-5-5-5--7-7--5-7-7--5-7-7--5----------8---8--------------5---5---5----5-5-5-----5555-5555-5s-|
|--------------------------------------------------------8^--8^--8^--8^----------5555-5555-5s--|
|----------------------------------------------------------------------------------------------|
|----------------------------------------------------------------------------------------------|
|----------------------------------------------------------------------------------------------|

SOLO 3 
|----------------------------------------------------------5-------------5--8-7-5---5---5--5--5|
|--8-7-6-5--------------------------------------7---5--7-8---8-7----5-7----------8---8------7--|
|----------8-7---5-7-5--8-7-7-5-----------------7----------------------------------------------|
|-------------------------------7-5-------------7----------------------------------------------|
|------------------------------------7-6-5-3---------------------------------------------------|
|----------------------------------------------------------------------------------------------|

|--7-8-7-5----7-8-7-5---7-8-7-5----7-8-7-5--------5--------------------------------------------|
|-----------------------------------------------5---8-5----------------------------------------|
|-------------------------------------------7-8----------7-5-----------------------------------|
|-------------------------------------------------------------7s-------------------------------|
|----------------------------------------------------------------------------------------------|
|----------------------------------------------------------------------------------------------|


|--5-5-----------------------8-8s------8-8s-------|
|--5-5--8-7-6-5--------------7-7s------7-7s-------|
|---------------7-5-------------------------------|
|-------------------7s----------------------------|
|-------------------------------------------------|
|-------------------------------------------------|

|-----5---5---5---5---------5--8-5-7-5----8-5-7-5---8-7-7-5--|
|-5-8--8^--8^--8^------5--8----------------------------------|
|------------------------------------------------------------|
|------------------------------------------------------------|
|------------------------------------------------------------|
|------------------------------------------------------------|

|--5-5-5---8-7-6-5------------------875-----5------------------------|
|-------------------5-------------------7-5------7---5-5-------------|
|---------------------8-7-5----------------------7---5-5^------------|
|--------------------------------------------------------------------|
|--------------------------------------------------------------------|
|--------------------------------------------------------------------| 
Tap to rate this tab
# A B C D E F G H I J K L M N O P Q R S T U V W X Y Z