Song name
# A B C D E F G H I J K L M N O P Q R S T U V W X Y Z

The Meters - Little Old Money Maker tab

#---------------------------------------------------------------------------#
#You may only use this file for private study, scholarship, or research.
#---------------------------------------------------------------------------#
                             LITTLE OLD MONEY MAKER
                            As recorded by The Meters
                         (From the 1970 Album STRUTTIN)
		Tab made by Alex Ceserani with Power Tab Editor 1.7

Gtr I

 4/4
  Gtr I
  W           Q    S E S S  S E Q     E. S S S  S e E. Q
|------||--------------------------|-----------------------||
|------||o-------------------------|----------------------o||
|------||-----8----7-5-7----8------|--8--7-7-7----5--------||
|------||----10----8-7-8---10------|-10--8-8-8----7--------||
|------||o-------------------------|----------------------o||
|------||--------------------------|-----------------------||


    S  S S S E S E S E S E S   Q  S E S S E S E E  4x
||-------8-------------------|---------------------||
||o-8S10-------6---6---6---6-|----6---------------o||
||--8S10-------8---8---8---8-|----8----------------||
||-------------7---7---7---7-|----7-----------6----||
||o------------8---8---8---8-|----8-------6-----8-o||
||---------------------------|--------6-8---8------||


     Q  S E S S  S E Q     E. S S S S e E. Q  4x
||----------------------|---------------------||
||o-10--8-6-8---10------|-10--8-8-8---6------o||
||---8--7-5-7----8------|--8--7-7-7---5-------||
||--10--8-7-8---10------|-10--8-8-8---7-------||
||o--8--6-5-6----8------|--8--6-6-6---5------o||
||----------------------|---------------------||


                                           ~
    E E E E E E E E  3x Q Q  S   E   S S S E
||--8-8-8-8-8-8-8-8--||-8--------------------|
||o-8-8-8-8-8-8-8-8-o||-8----9--11---9-------|
||--8-8-8-8-8-8-8-8--||-8---10-(10)-10-------|
||--7-7-7-7-7-7-7-7--||-7----------------6---|
||o-8-8-8-8-8-8-8-8-o||-8------------------8-|
||-------------------||----------------------|


  +H   S S  e  S  S  S  S   E      S S +E  E E E  S  S  E
|----------------------10-|-------------------------------|
|-------------------------|-9b9.5-------------------------|
|--------8-10-10-10-10----|-------10-8-(8)-----8-10-10-10-|
|-------------------------|-------------------------------|
|-(8)---------------------|-------------------------------|
|-------------------------|-------------------------------|


  Q    E   S   S   S  S  S S S S  E      S S E Q E S S S S S S
|--------------------------------------|-------------------------|
|-9b10---------------------------------|-------------------------|
|--------------8---8--8--8-------------|-------------------------|
|--------/10-(10)-10-10-10---8---------|-------------------------|
|------------------------------8-10b11-|-8-6-8-----6-6-6-6-6-8---|
|--------------------------------------|-------------------------|


  +E. S  S   E   S  +E      E S S S S
|-------------------------------------|
|--------9--11---9--(9)b9.5-----------|
|-----x-10-(10)-10-(10)---------------|
|-------------------------------------|
|-(8)-----------------------8-6-6-6-8-|
|-------------------------------------|


  +E. S  S   E   S  +E      E S  S  S S   +E. S  S   E   S S S E Q
|---------------------------------------|---------------------------|
|--------9--11---9--(9)b9.5-------------|--------9--11---9----------|
|-----x-10-(10)-10-(10)-------6-(6)-----|-----x-10-(10)-10----------|
|-----------------------------------6-7-|--------------------6---6--|
|-(8)-----------------------8-6--6--6-8-|-(8)----------------6-8----|
|---------------------------------------|---------------------------|


Rhythm Guitar during organ solo


  E. S S S S S S S S S S S S S     S S S S S S S S S S S S S S S  S   7x
|------------------------------||-------------------------------------||
|-6--6-x-x-6-x-x-6-x-x-6-x-x-6-||o-x-x-x-x-6-x-x-x-x-6-x-x-6-x-x-(6)-o||
|-8--8-x-x-8-x-x-8-x-x-8-x-x-8-||--x-x-x-x-8-x-x-x-x-8-x-x-8-x-x-(8)--||
|-7--7-x-x-7-x-x-7-x-x-7-x-x-7-||--x-x-x-x-7-x-x-x-x-7-x-x-7-x-x-(7)--||
|-8--8-x-x-8-x-x-8-x-x-8-x-x-8-||o-x-x-x-x-8-x-x-x-x-8-x-x-8-x-x-(8)-o||
|------------------------------||-------------------------------------||



************* Generated using Power Tab Editor by Brad Larsen***********
Tap to rate this tab
 
# A B C D E F G H I J K L M N O P Q R S T U V W X Y Z