Song name
# A B C D E F G H I J K L M N O P Q R S T U V W X Y Z

The Meters - Look-ka Py Py tab

-------------------------------------------------------------------------------
                             Look-ka Py Py - The Meters
-------------------------------------------------------------------------------
Tabbed by: Jeff

Tuning: standard

main riff
e|---------------------------------------------------------------------|
B|----------------------6---6---6------------------------6--6--6-------|
G|------------3h4-------7--7---7-------------------------7--7--7-------|
D|-----3---5------5--------------------3---5--3------------------------|
A|---5---5---------------------------5---5------5----------------------|
E|-------------------------------------------------2--3----------------|

repeat that 4x

then

e|------------------------------------------------------------------------------|
B|-------------------------------6----------------------------------------------|
G|--------------------------5/7----7--5--5--------------------------------------|
D|-----3--1-----1---3----------------------------3--1-----1---3-----------------|
A|-----------3-------------------------------------------3----------------------|
E|----------------------------------------------------------------1-------------|


************************************

| /   slide up
| \   slide down
| h   hammer-on
| p   pull-off
| ~   vibrato
| +   harmonic
| x   Mute note
| b   Bend
| pb  Pre-bend
| br  Bend release
| pbr Pre-bend release
| brb Bend release bend

************************************
Tap to rate this tab
# A B C D E F G H I J K L M N O P Q R S T U V W X Y Z