Song name
# A B C D E F G H I J K L M N O P Q R S T U V W X Y Z

The Methadones - Hygiene Aisle tab

Listen to the song for the timing and structure

Intro (Guitar 1):

e-----     ---------------------     ------------|
B-----     ---------------------     ------------|
G-----     ----444444-7-777777--     --99999999--|
D--4-- X2  --4-444444-7-777777-- X3  --99999999--|
A--4--     --4-444444-5-555555--     --77777777--|
E--2--     --2-222222-----------     ------------|


Intro (Lead):

e--------------------------     --------------------|
B--------------------------     --------------------|
G--------------------2-----     ----------4-2-1-----|
D--------2-4-4-2-4-4---4-4- X3  --4-4-2---------4-2-|
A--2-4-4-------------------     --------------------|
E--------------------------     --------------------|


Verse:
*I'm just gonna write out the chord changes, its not hard to figure out the rest

e-----------------------------------------------|
B-----------------------------------------------|
G--------------7--------------------------------|
D--4-----------7----------7----------9----------|
A--4-----------5----------7----------9----------|
E--2----------------------5----------7----------|

e------------------------------------------------|
B------------------------------------------------|
G--------------7----------9----------------------|
D--4-----------7----------9----------(4)---------|
A--4-----------5----------7----------(4)---------|
E--2---------------------------------(2)---------|

*The (x) are only played right before the chorus

Chorus:

e-----------------------------------------------|
B-----------------------------------------------|
G--7----------------------6---------------------|
D--7-----------7----------6---------------------|
A--5-----------7----------4---------------------|
E--------------5--------------------------------|

e-----------------------------------------------|
B-----------------------------------------------|
G--7--------------------------------------------|
D--7-----------7----------4---------------------|
A--5-----------7----------4---------------------|
E--------------5----------2---------------------|

Great song by a great band.
Tap to rate this tab
 
# A B C D E F G H I J K L M N O P Q R S T U V W X Y Z