Song name
# A B C D E F G H I J K L M N O P Q R S T U V W X Y Z

The Methadones - Antidote tab

Song: Antidote
Artist: The Methadones
Album: Career Objective

Ok, I'm not writing out all the timing, you can figure that out

Intro/Verse:
e------------------------------|
B------------------------------|
G---------8------5------7---3--|
D--5------8------5------7---3--|
A--5------6------3------5---1--|
E--3---------------------------|

Prechorus:
e-----------------------------------------------------|
B-----------------------------------------------------|
G--7------------8-------------7------------8------10--|
D--7------------8-------------7------------8------10--|
A--5------------6-------------5------------6------8---|
E-----------------------------------------------------|

Chorus:
e-----------------------------|
B-----------------------------|
G----------------8------7-----|
D--5------3------8------7-----|
A--5------3------6------5-----|
E--3------1-------------------|

Bridge:
e---------------------------------|
B---------------------------------|
G-----------------------3---------|
D--5--------------------3---3-----|
A--5--------------------1---3-----|
E--3------------------------1-----|

I'll eventually figure out the leads.

k00pa138
Tap to rate this tab
 
# A B C D E F G H I J K L M N O P Q R S T U V W X Y Z