Song name
# A B C D E F G H I J K L M N O P Q R S T U V W X Y Z

The Methadones - Wake Up tab

Song: "Wake Up"
Artist: The Methadones
Album: Ill At Ease

Not gonna tab out the timing, its easy enough, just listen to the song

Intro/Verse:
e-----------------|
B-----------------|
G--9----------7---|
D--9------5---7---|
A--7------5---5---|
E---------3-------|

Chorus:
e---------------------------------|
B---------------------------------|
G--5-------7---9---5-------7------|
D--5---5---7---9---5---5---7------|
A--3---5---5---7---3---5---5------|
E------3---------------3----------|

Bridge:
e----------------|
B----------------|
G--5------7------|
D--5------7------|
A--3------5------|
E----------------|


k00pa138
Tap to rate this tab
# A B C D E F G H I J K L M N O P Q R S T U V W X Y Z