Song name
# A B C D E F G H I J K L M N O P Q R S T U V W X Y Z

The Methadones - Ill At Ease tab

Song: Ill At Ease
Artist: The Methadones
Album: Ill At Ease

Not writing out the timing, listen to the song

Intro:
e------|
B------|
G--9---|
D--9---|
A--7---|
E------|

Verse:
e------------------------------------------------------------------------|
B------------------------------------------------------------------------|
G--9-------7-------5--------------9----9-------7-------5-----------------|
D--9---5---7---7---5---5---9------9-9--9---5---7---7---5---5---9---------|
A--7---5---5---7---3---5---9------7-9--7---5---5---7---3---5---9---------|
E------3-------5-------3---7--------7------3-------5-------3---7---------|

Chorus:
e---------------------------------|
B---------------------------------|
G--5---7-------9---5---7----------|
D--5---7---9---9---5---7---9------|
A--3---5---9---7---3---5---9------|
E----------7---------------7------|

Outro:
e----------------------|
B----------------------|
G--9---4---5---7-----9-|
D--9---4---5---7---7-9-|
A--7---2---3---5---7-7-|
E------------------5---|

k00pa139
Tap to rate this tab
 
# A B C D E F G H I J K L M N O P Q R S T U V W X Y Z