Song name
# A B C D E F G H I J K L M N O P Q R S T U V W X Y Z

The Metros - Last Of The Lookers tab

b = bend

first tab n all. enjoy..:)

e|----------------------------------------------------------------------|
B|---------------------------------------------------------------8-7-6--|
G|---------5---5--------5---5--7b-5---5---5--------5---5--7b-5-7-------7|
D|----567--5-7-5-7-7777-5-7-5--7b-5-7-5-7-5-7-7777-5-7-5--7b-5-7--------|
A|----567----7---7-7777---7---------7---7---7-7777---7------------------|
E|----------------------------------------------------------------------|


e|-------------------------------------------------------|
B|-----8-7-6---------------------------------------------|
G|-777-------7-5-7p5-7-5---5--------5---5-7b-5-----------|
D|-------------------7-5-7-5-7-7777-5-7-5-7b-5-7---------|
A|-----------------------7---7-7777---7--------7---------|
E|-------------------------------------------------------|

Tap to rate this tab
# A B C D E F G H I J K L M N O P Q R S T U V W X Y Z