Song name
# A B C D E F G H I J K L M N O P Q R S T U V W X Y Z

The Metros - Education Part 2 tab

Tabbed-greenday2003
Email-greenday_rhcp2002@yahoo.co.uk

This is what iv got so far. Each riff is heard throughout the song,
Listen for it. Im working on the rest.Comments welcome.Updated with chorus. more to come.

Intro
|-----------------------------------------------------------------|
|-----------------------------------------------------------------|
|-----------------------------------------------------------------|
|-7/3--------------------------------------------2-3-3-0-2------2-|
|------3-3-3------------------3------1-2-3--3-3-------------3-3---|
|-------------0-1-1-1-2-3-3-3---1-2-3-----------------------------|

Riff2
|------------------------------------------|
|---8---------8--------8-----88------------|
|-5---7-9-5-5---7-9--5---7-9---10-10-99-77-|
|------------------------------------------|
|------------------------------------------|
|------------------------------------------|


|----------------------------------------------|
|---8---------8-------8-----88-77-88-10-10-13~-|
|-5---7-9-5-5---7-9-5---7-9--------------------|
|----------------------------------------------|
|----------------------------------------------|
|----------------------------------------------|


Chords/intro/verse, listen for timing
|-3--1--3--3-|
|-4--1--3--3-|
|-5--2--4--4-|
|-5--3--5--5-|
|-3--3--5--5-|
|----1--3--3-|

Chords-Chorus-Use Bar chords if ya wish, Listen for rythm its simple 2 get
|-------------------------------|
|-------------------------------|
|-------------------------------|
|-10-14-12-13-14------12-/13/14-|
|-10-14-12-13-14-x3---12-/13/14-|
|--8-12-10-11-12------10-/11/12-|
Tap to rate this tab
 
# A B C D E F G H I J K L M N O P Q R S T U V W X Y Z