Song name
# A B C D E F G H I J K L M N O P Q R S T U V W X Y Z

The Metros - Talk About It tab

Help us improve GuitareTab! Take a short survey!
intro


e|------------------------------------------------|
b|---------------10------------------10-----------|
g|--/9---9-10-11----11-10-9--9-10-11----11-10-9---|
d|------------------------------------------------|
a|------------------------------------------------|
e|------------------------------------------------|

e|-------------------------9--------12-------9-/--|
b|--------------10---------10-10-10-9--10-10-10/--|
g|--9---9-10-11----11-10--------------------------|    
d|------------------------------------------------|   x 2
a|------------------------------------------------|
e|------------------------------------------------|
Related for Talk About It tab