Song name
# A B C D E F G H I J K L M N O P Q R S T U V W X Y Z

The Metros - Live A Little chords

e-----------------------------------------------------------|
b-----------------------------------------------------------|
g------------6-------------------------------7--------------|
d--------7------7-----------------------9---------9---------|
a----7--------------7-------------9--------------------9----|
E--5-----------------------/7-------------------------------|

   A                       Bm

e------------------------------------------7-----------------|
b-------------------7----------------------9-----------------|
g--------------7--------7--------7---------9-----------------|
d---------7-----------------7--------------9-----------------|
a---5--------------------------------------7-----------------|
E------------------------------------------7-----------------|

    D                                      E
Tap to rate this tab
 
# A B C D E F G H I J K L M N O P Q R S T U V W X Y Z