Song name
# A B C D E F G H I J K L M N O P Q R S T U V W X Y Z

The Metros - Talk About It tab

Intro:

e------------------------------------------------------9--------12-----9----|
b---------10-----------------10-----------------10-----10-10-10-10-10-10----|
g-9-10-11----11-10-9---10-11----11-10-9---10-11----11-----------------------|
d---------------------------------------------------------------------------|
a---------------------------------------------------------------------------|
e---------------------------------------------------------------------------|
X2

Vers.
Listen to the song and youŽll get the rythm

e--x-x-x--x--x--x---9-x-x-x-x--9-x-x-x-x--9-x-x--9-x-x-x-x--9-x-x-x-x--9-x-x-|
b--x-x-x--x--x--x--10-x-x-x-x-10-x-x-x-x-10-x-x-10-x-x-x-x-10-x-x-x-x-10-x-x-|
g--x-x-x--x--x--x---9-x-x-x-x--9-x-x-x-x--9-x-x--9-x-x-x-x--9-x-x-x-x--9-x-x-|
d--x-x-x--x--x--x------------------------------------------------------------|
a----------------------------------------------------------------------------|
e----------------------------------------------------------------------------|

Pre Chorus


e-5--x-x--5--x-x--5--x--5--x-x--5--x-x---------------------------------------|
b-5--x-x--5--x-x--5--x--7--x-x--7--x-x---------------------------------------|
g-6--x-x--6--x-x--6--x--7--x-x--7--x-x-7-7-7-9-9-9-9-9-9-9-9-9-9-9-9-9-9-9-9-|
d-7--x-x--7--x-x--7--x--7--x-x--7--x-x-7-7-7-9-9-9-9-9-9-9-9-9-9-9-9-9-9-9-9-|
a-7--x-x--7--x-x--7--x--5--x-x--5--x-x-5-5-5-7-7-7-7-7-7-7-7-7-7-7-7-7-7-7-7-|
e-5--x-x--5--x-x--5--x-------------------------------------------------------|

Chorus

e--5---5----7------5---5-----------5--5--5--5--7-\--------------------------|
b--5---5----7------7---7-----------7--7--7--7--9-\--------------------------|
g--6---6----8------7---7-----X-3---7--7--7--7--9-\--------------------------|
d--7---7----9------7---7-----------7--7--7--7--9-\--------------------------|
a--7---7----9------5---5-----------5--5--5--5--7-\--------------------------|
e--5---5----7---------------------------------------------------------------|


Bridge
Verse 2
Pre Chorus
Chorus
Verse 3
Chorus
Bridge
Outro


Outro

e-----------------------------------------------------------------------------|
b--------------------------------------------6--------------------------------|
g---------------------------5------------7-9---9-7----------------------------|
d----------5------------7-9---9-7----5-9-----------9----------5----------X 2--|
a------7-9---9-7----5-9-----------9-----------------------7-9---9-7-----------|
e--5-9-----------9------------------------------------5-9-----------9---------|

          A
e---5--5--5-5-5--5-5-5-5--5-5---5--5--5-5-5--5-5-5-5--5---------------------|
b---5--5--5-5-5--5-5-5-5--5-5---5--5--5-5-5--5-5-5-5--5---------------------|
g---6--6--6-6-6--6-6-6-6--6-6---6--6--6-6-6--6-6-6-6--6---------------------|
d---7--7--7-7-7--7-7-7-7--7-7---7--7--7-7-7--7-7-7-7--7---------------------|
a---7--7--7-7-7--7-7-7-7--7-7---7--7--7-7-7--7-7-7-7--7---------------------|
e---5--5--5-5-5--5-5-5-5--5-5---5--5--5-5-5--5-5-5-5--5---------------------|
Tap to rate this tab
 
# A B C D E F G H I J K L M N O P Q R S T U V W X Y Z