Song name
# A B C D E F G H I J K L M N O P Q R S T U V W X Y Z

The Middle East - Pig Food tab

This is only the second half of the song where the guitar comes in at 4:25. It's only
I hear and I haven't included any bends or effects that might be included as I can't tell
they are. But I think it's a good enough basic template to be able to play this part of 
song reasonable accurately. If anyone can expand on it that would be awesome.

Also I know there's another guitar part being played underneath, I might have a crack at
it out another time.

(4:25) - (5:20)

e |-------------------------------------------------------------------|
B |--------17-17------------------------------------------------------|
G |-16--16-------14-14--14-12-12---(x14)------------------------------|
D |-------------------------------------------------------------------|
A |-------------------------------------------------------------------|
E  |------------------------------------------------------------------|

(5:20) - (5:50)

e |-------------------------------------------------------------------------------|
B |----------------------------------------17-17-17-17-17-17-17-17-17-17-17-17----|
G |-16-16-16-16-16-16-16/18-18-18-18-18-18----------------------------------------|
D |-------------------------------------------------------------------------------|
A |-------------------------------------------------------------------------------|
E  |------------------------------------------------------------------------------|


e |-19-17-16-17-16-14-16-14-------------19-17-16-17-16-14-16-14-------------------|
B |-------------------------17-19-17-16-------------------------17-19-17-16-------|
G |-------------------------------------------------------------------------------|
D |-------------------------------------------------------------------------------|
A |-------------------------------------------------------------------------------|
E  |------------------------------------------------------------------------------|


e |-19-17-16-17-16-14-16-14-------------------------------------------------------|
B |-------------------------17-19-17-16-14-16-17-14-16-14-17-14-19-14-17-16-------|
G |-------------------------------------------------------------------------------|
D |-------------------------------------------------------------------------------|
A |-------------------------------------------------------------------------------|
E  |------------------------------------------------------------------------------|


e |-19-17-16-17-16-14-16-14-------------19-17-16-17-16-14-16-14-------------------|
B |-------------------------17-19-17-16-------------------------17-19-17-16-------|
G |-------------------------------------------------------------------------------|
D |-------------------------------------------------------------------------------|
A |-------------------------------------------------------------------------------|
E  |------------------------------------------------------------------------------|

(5:50) - (6:28)

e |-------------------------------------16-16-16-16-16-16-19-19-19-19-19-19-------|
B |-17-17-17-17-17-17-19-19-19-19-19-19-------------------------------------------|
G |-------------------------------------------------------------------------------|
D |-------------------------------------------------------------------------------|
A |-------------------------------------------------------------------------------|
E  |------------------------------------------------------------------------------|

e |-------------------------------------16-16-16-16-16-16-19-19-19-19-19-19-------|
B |-17-17-17-17-17-17-19-19-19-19-19-19-------------------------------------------|
G |-------------------------------------------------------------------------------|
D |-------------------------------------------------------------------------------|
A |-------------------------------------------------------------------------------|
E  |------------------------------------------------------------------------------|

(Gregorian Choir comes in)

e |-19-19-19-19-19-19-17-17-17-17-17-17-16-16-16-16-16-16-14-14-14-14-14-14-------|
B |-------------------------------------------------------------------------------|
G |-------------------------------------------------------------------------------|
D |-------------------------------------------------------------------------------|
A |-------------------------------------------------------------------------------|
E  |------------------------------------------------------------------------------|


e |-12-12-12-12-12-12-12-12-12-12-12-12-19-19-19-19-19-19-17-17-17-17-17-17-------|
B |-------------------------------------------------------------------------------|
G |-------------------------------------------------------------------------------|
D |-------------------------------------------------------------------------------|
A |-------------------------------------------------------------------------------|
E  |------------------------------------------------------------------------------|


e |-16-16-16-16-16-16-14-14-14-14-14-14-12-12-12-12-12-12-12-12-12-12-12-12-------|
B |-------------------------------------------------------------------------------|
G |-------------------------------------------------------------------------------|
D |-------------------------------------------------------------------------------|
A |-------------------------------------------------------------------------------|
E  |------------------------------------------------------------------------------|
Tap to rate this tab
 
# A B C D E F G H I J K L M N O P Q R S T U V W X Y Z