Song name
# A B C D E F G H I J K L M N O P Q R S T U V W X Y Z

The Middle East - Blood tab

Blood by The Middle East
Standard Tuning
Capo on 4th Fret
(All chords relative to capo)

Chords Used:
   C add9  G sus2   A m     E m     E m7   C add9    G
e|---3---|---5---|---0---|---7---|---3---|---3---|---3---|
B|---5---|---3---|---1---|---8---|---3---|---3---|---3---|
G|---0---|---0---|---2---|---0---|---0---|---0---|---0---|
D|---0---|---0---|---2---|---9---|---2---|---2---|---0---|
A|---3---|-------|---0---|---7---|---2---|---3---|---2---|
E|-------|---3---|-------|-------|---0---|-------|---3---|



Intro/Verse:
    C add9      G sus2         A m         E m
e|-----3-----3-----5-----5--|-----0-----0-----7-----7--|   \ 
B|-----5-----5-----3-----3--|-----1-----1-----8-----8--|    |
G|-----0-----0-----0-----0--|-----2-----2-----0-----0--|    |
D|--------0-----------0-----|--------2-----------9-----|    | (x2) Intro 
A|--3-----------------------|--0-----------7-----------|    |
E|--------------3-----------|--------------------------|    | (x3) Verse 1
    Ol - der    bro - ther,    rest-less   soul  lie        |
                                                            |   (top line played
    C add9      C add9         C add9      C add9           |    twice for 3rd
e|-----3-----3-----3-----3--|-----3-----3-----3-----3--|    |    repeat)
B|-----5-----5-----5-----5--|-----5-----5-----5-----5--|    |
G|-----0-----0-----0-----0--|-----0-----0-----0-----0--|    |
D|--------0-----------0-----|--------0-----------0-----|    |
A|--3-----------3-----------|--3-----------3-----------|    |
E|--------------------------|--------------------------|   /
    down.

Pre-Chorus:
   C add9      C add9          C add9      C add9
e|-----3-----3-----3-----3--|-----3-----3-----3-----3--|   \
B|-----5-----5-----5-----5--|-----5-----5-----5-----5--|    |
G|-----0-----0-----0-----0--|-----0-----0-----0-----0--|    |
D|--------0-----------0-----|--------0-----------0-----|    |
A|--3-----------3-----------|--3-----------3-----------|    |
E|--------------------------|--------------------------|    |
 ...reach                                  home  to         |
                                                            | (x2)
    G sus2      G sus2         G sus2      G sus2           |
e|-----5-----5-----5-----5--|-----5-----5-----5-----5--|    |
B|-----3-----3-----3-----3--|-----3-----3-----3-----3--|    |
G|-----0-----0-----0-----0--|-----0-----0-----0-----0--|    |
D|--------0-----------0-----|--------0-----------0-----|    |
A|--------------------------|--------------------------|    |
E|--3-----------3-----------|--3-----------3-----------|   /
    me.

Chorus:
    E m7                       C add9
e|-----3-----3-----3-----3--|-----3-----3-----3-----3--|   \
B|-----3-----3-----3-----3--|-----3-----3-----3-----3--|    |
G|-----0-----0-----0-----0--|-----0-----0-----0-----0--|    |
D|--------------------------|--------2-----------2-----|    |
A|--------2-----------2-----|--3-----------3-----------|    |
E|--0-----------0-----------|--------------------------|    |
 ...wake  up     in   a        cold  sweat  on  the         | (x4) Chorus 1
                                                            | 
    G                          G                            |   (top line only
e|-----3-----3-----3-----3--|-----3-----3-----3-----3--|    |    for 4th
B|-----3-----3-----3-----3--|-----3-----3-----3-----3--|    |    repeat)
G|-----0-----0-----0-----0--|-----0-----0-----0-----0--|    |
D|--------------------------|--------------------------|    |
A|--------2-----------2-----|--------2-----------2-----|    |
E|--3-----------3-----------|--3-----------3-----------|   /
    floor,                                   next to...

Pre-verse  - intro/verse x2
Verse 2    - intro/verse x3 (top lined played twice for 3rd repeat)
Pre-chorus - pre-chorus x2
Chorus 2   - chorus x3      (top line only for 3rd repeat)

Pre-verse  - intro/verse x4
Verse 3    - intro/verse x3 (top line played twice for 3rd repeat)
Pre-chorus - pre-chorus x2

Chorus 3:
   E m7                       C add9
e|-----3-----3-----3-----3--|-----3-----3-----3-----3--|   \
B|-----3-----3-----3-----3--|-----3-----3-----3-----3--|    |
G|-----0-----0-----0-----0--|-----0-----0-----0-----0--|    |
D|--------------------------|--------2-----------2-----|    |
A|--------2-----------2-----|--3-----------3-----------|    |
E|--0-----------0-----------|--------------------------|    |
 ...on - ly                    woman       you ever         |
                                                            | (x2)
    G                          G                            |
e|-----3-----3-----3-----3--|-----3-----3-----3-----3--|    |
B|-----3-----3-----3-----3--|-----3-----3-----3-----3--|    |
G|-----0-----0-----0-----0--|-----0-----0-----0-----0--|    |
D|--------------------------|--------------------------|    |
A|--------2-----------2-----|--------2-----------2-----|    |
E|--3-----------3-----------|--3-----------3-----------|   /
    loved,                                  that got...

   E m7                       C add9
e|-----3-----3-----3-----3--|-----3-----3-----3-----3--|   \
B|-----3-----3-----3-----3--|-----3-----3-----3-----3--|    |
G|-----0-----0-----0-----0--|-----0-----0-----0-----0--|    | (x3)
D|--------------------------|--------2-----------2-----|    |
A|--------2-----------2-----|--3-----------3-----------|    |
E|--0-----------0-----------|--------------------------|   /
 ...can - cer   spread and it  ran   in - to  her...

   G
e|--------------------------|--------------------------|
B|--------------------------|--------------------------|
G|--------------------------|--------------------------|
D|--------------------------|--------------------------|
A|--------------------------|--------------------------|
E|--3-----------------------|--------------------------|
 ...now.

Outro:
   C add9      G sus2         A m         E m
e|--3--3--3--3--5--5--5--5--|--0--0--0--0--7--7--7--7--|   \
B|--5--5--5--5--3--3--3--3--|--1--1--1--1--8--8--8--8--|    |
G|--0--0--0--0--0--0--0--0--|--2--2--2--2--0--0--0--0--|    |
D|--0--0--0--0--0--0--0--0--|--2--2--2--2--9--9--9--9--|    |
A|--3--3--3--3--------------|--0--0--0--0--7--7--7--7--|    |
E|--------------3--3--3--3--|--------------------------|    |
                                                            | (x12)
    C add9      C add9         C add9      C add9           |
e|--3--3--3--3--3--3--3--3--|--3--3--3--3--3--3--3--3--|    |
B|--5--5--5--5--5--5--5--5--|--5--5--5--5--5--5--5--5--|    |
G|--0--0--0--0--0--0--0--0--|--0--0--0--0--0--0--0--0--|    |
D|--0--0--0--0--0--0--0--0--|--0--0--0--0--0--0--0--0--|    |
A|--3--3--3--3--3--3--3--3--|--3--3--3--3--3--3--3--3--|    |
E|--------------------------|--------------------------|   /

    C add9                     C add9
e|-----3-----3-----3-----3--|-----3-----3-----3-----3--|   \
B|-----3-----3-----3-----3--|-----3-----3-----3-----3--|    |
G|-----0-----0-----0-----0--|-----0-----0-----0-----0--|    |
D|--------2-----------2-----|--------2-----------2-----|    |
A|--3-----------3-----------|--3-----------3-----------|    |
E|--------------------------|--------------------------|    |
                                                            | (x2)
    G                          G                            |
e|-----3-----3-----3-----3--|-----3-----3-----3-----3--|    |
B|-----3-----3-----3-----3--|-----3-----3-----3-----3--|    |
G|-----0-----0-----0-----0--|-----0-----0-----0-----0--|    |
D|--------------------------|--------------------------|    |
A|--------2-----------2-----|--------2-----------2-----|    |
E|--3-----------3-----------|--3-----------3-----------|   /

   E m7                       C add9
e|-----3-----3-----3-----3--|-----3-----3-----3-----3--|   \
B|-----3-----3-----3-----3--|-----3-----3-----3-----3--|    |
G|-----0-----0-----0-----0--|-----0-----0-----0-----0--|    |
D|--------------------------|--------2-----------2-----|    |
A|--------2-----------2-----|--3-----------3-----------|    |
E|--0-----------0-----------|--------------------------|    |
                                                            | (x2)
    G                          G                            |
e|-----3-----3-----3-----3--|-----3-----3-----3-----3--|    |
B|-----3-----3-----3-----3--|-----3-----3-----3-----3--|    |
G|-----0-----0-----0-----0--|-----0-----0-----0-----0--|    |
D|--------------------------|--------------------------|    |
A|--------2-----------2-----|--------2-----------2-----|    |
E|--3-----------3-----------|--3-----------3-----------|   /

    C add9
e|--3-----------------------|--------------------------|   \
B|--3-----------------------|--------------------------|    |
G|--0-----------------------|--------------------------|    |
D|--2-----------------------|--------------------------|    |
A|--3-----------------------|--------------------------|    |
E|--------------------------|--------------------------|    |
                                                            | (x2)
    G                                                       |
e|--3-----------------------|--------------------------|    |
B|--3-----------------------|--------------------------|    |
G|--0-----------------------|--------------------------|    |
D|--0-----------------------|--------------------------|    |
A|--2-----------------------|--------------------------|    |
E|--3-----------------------|--------------------------|   /

    E m7                       C add9
e|--3-----------------------|--3-----------------------|
B|--3-----------------------|--3-----------------------|
G|--0-----------------------|--0-----------------------|
D|--2-----------------------|--2-----------------------|
A|--2-----------------------|--3-----------------------|
E|--0-----------------------|--------------------------|

    G
e|--3-----------------------|--------------------------|
B|--3-----------------------|--------------------------|
G|--0-----------------------|--------------------------|
D|--0-----------------------|--------------------------|
A|--2-----------------------|--------------------------|
E|--3-----------------------|--------------------------|
Tap to rate this tab
 
# A B C D E F G H I J K L M N O P Q R S T U V W X Y Z